Song name
# A B C D E F G H I J K L M N O P Q R S T U V W X Y Z

Aashiqui 2 - Tum Hi Ho tab

Tum Hi Ho
Ashiqui 2
Arjit Singh
Tabbed by-Tanvir Ahmed Khan
Email:tanvirahmed7170@yahoo.com

Here Is The Tab.Standard tuning and Easy To Play.
P=Pull off/pause for 1 sec

Hum Tere Bin e Ab Reh Nehi Saak Te
E--------11------------------------------------------------------|
B-10-10----13--11-11-10------------11-10-10-10-------------------|
G---------------------------10-10-12-----------------------------|
D----------------------------------------------------------------|
A----------------------------------------------------------------|
E----------------------------------------------------------------|

Tere Bina Kea Yajud He Mera
E-8-8---8-8------------------------------------------------------|
B-----10----10--9--5--5--7---------------------------------------|
G----------------------------------------------------------------|
D----------------------------------------------------------------|
A----------------------------------------------------------------|
E----------------------------------------------------------------|

Tujhse Juda Kar Ho Ja enge To
E--------11------------------------------------------------------|
B-10-10----13--11-11-10------------11-10-10-10-------------------|
G---------------------------10-10-12-----------------------------|
D----------------------------------------------------------------|
A----------------------------------------------------------------|
E----------------------------------------------------------------|

Khudsei Ho Jaenge Juda
E-8-8---8-8------------------------------------------------------|
B-----10----10--9--5--5--7---------------------------------------|
G----------------------------------------------------------------|
D----------------------------------------------------------------|
A----------------------------------------------------------------|
E----------------------------------------------------------------|

Kiu Ki Tum Hi Ho Ab Tum Hi Ho
E----------------------------------------------------------------|
B----------11-------------------11-------------------------------|
G-10--12-----10--12---10-12-----10--12---------------------------|
D----------------------------------------------------------------|
A----------------------------------------------------------------|
E----------------------------------------------------------------|

Zindegi Ab Tum Hi HO oooo
E----------------------------------------------------------------|
B----------------------------------------------------------------|
G-9--12--10P--9--5-5--7--9--10--12-------------------------------|
D----------------------------------------------------------------|
A----------------------------------------------------------------|
E----------------------------------------------------------------|

Chan Vi Mera Daard Vi
E----------------------------------------------------------------|
B-11----------------11-------------------------------------------|
G----10-12--10-12-----10--12-------------------------------------|
D----------------------------------------------------------------|
A----------------------------------------------------------------|
E----------------------------------------------------------------|


Meri Ashiqui Ab Tum Hi Ho
E----------------------------------------------------------------|
B----------------------------------------------------------------|
G-9-9-9-12--10P--9-5-5-7-----------------------------------------|
D----------------------------------------------------------------|
A----------------------------------------------------------------|
E----------------------------------------------------------------|
Tap to rate this tab
# A B C D E F G H I J K L M N O P Q R S T U V W X Y Z