Song name
# A B C D E F G H I J K L M N O P Q R S T U V W X Y Z

Abandon Kansas - Close Your Eyes tab

{ Intro x2 }
|-----------------------------------------------------------------------------|
|-----------------------------------------------------------------------------|
|-----------------------------------------------------------------------------|
|-----------------------------------------------------------------------------|
|---------18-17-17----------------17-15-15----------------15-13-13---10-12-13-|
|-20-19-20----------------19-17-19----------------17-15-17--------------------|


Chords for Verse
Em - C - G






{ Chorus }
| ----------------------------------------------------------------------------|
| ----------------------------------------------------------------------------|
| ----------------------------------------------------------------------------|
| ----------------------------------------------------------------------------|
|--13-13-13-13-13-------------------------------12-12-12-12-12-<--2xonly--19--|
| ----------------15-15-15-15-15-\-12-12-12-12-12-----------------------------|
Tap to rate this tab
 
# A B C D E F G H I J K L M N O P Q R S T U V W X Y Z