Song name
# A B C D E F G H I J K L M N O P Q R S T U V W X Y Z

Abandoned Pools - Seed tab

Help us improve GuitareTab! Take a short survey!
e(----------------------)(--12-repeated-)
b(----------------------)(--------------)
g(------44-45-----44-43-)(--------------)
d(--2-2-44-45-2-2-44-43-)(--------------)
a(--2-2-22-23-2-2-22-21-)(--------------)
D(--2-2-------2-2-------)(--------------)

e(--------------------------)(--12-11-repeated-)
b(--------------------------)(-----------------)
g(--------------------------)(-----------------)
d(--------------------------)(-----------------)
a(----2-2-33-22---2-2-33-21-)(-----------------)
D(--2-----------2-----------)(-----------------)

e(---------------------------)
b(--5-7-8-10-12--2-0---------)
g(-------------------2-------)
d(---------------------2-----)
a(-----------------------4-0-)
D(---------------------------)
Related for Seed tab