Song name
# A B C D E F G H I J K L M N O P Q R S T U V W X Y Z

Abarax - Autumn Storm tab

BAND - ABARAX
SONG - AUTUMN STORM
FROM - BLUE ROOM

THUNDER & LIGHTNING

KEYBOARD

PIANO Am

|-------|
|VERSE 1|
|-------|
Am                          G
The autumn storm has blown right across the land
Am                     G
the autumn storm has shown its strong hand
C                           G
it's left us with trouble we don't really need
Am         E      Am
lord, have mercy, that's what we pleed


 CHORDS = Am G Am G C G Am E Am
 SECTION 1
 GUITAR 1 
[----------------------------|-----------------------br----]
[--10-12-13--10-12-13--15-12-|--10-12-13--10-12-13--15--12-]
[----------------------------|-----------------------------]
[----------------------------|-----------------------------]
[----------------------------|-----------------------------]
[----------------------------|-----------------------------]
|                                                          |
|GUITAR 2                                                  |
[----------------------13----|-----------------------rb----]
[--13-15-17--13-15-17-----15-|--13-15-17--13-15-17--17--15-]
[----------------------------|-----------------------------]
[----------------------------|-----------------------------]
[----------------------------|-----------------------------]
[----------------------------|-----------------------------]


 GUITAR 1
[-----------------------rb----|-------s---------s----------]
[--10-12-13--10-12-13--13--12-|----13-\-10---12-\-8---10---]
[-----------------------------|----------------------------]
[-----------------------------|----------------------------]
[-----------------------------|----------------------------]
[-----------------------------|----------------------------]
|                                                          |
|GUITAR 2                                                  |
[-----------------------rb----|--------s---------s---------]
[--13-15-17--13-15-17--17--15-|-15--17-\-13---15-\-12---13-]
[-----------------------------|----------------------------]
[-----------------------------|----------------------------]
[-----------------------------|----------------------------]
[-----------------------------|----------------------------]



|-------|
|VERSE 2|
|-------|
Am                          G
The autumn storm has blown right across the land
Am                           G
it ain't what we wanted, and noone did demand
C                      G
nothing but chaos was left for us to see
Am         E      Am
lord, have mercy, that's what we pleed



|------|
|CHORUS|
|------|
G                        Am
Now the wind has broken, us into two
G                          Am
the chills cooled me down - what's the right to do
G                Am
I wanna be safe, I wanna be warm
F       G           Am
help me through the autumn storm


|----------------|
|REPEAT SECTION 1|
|----------------|


|-------|
|VERSE 3|
|-------|
Am                      G
Ruins we are left with - no place to hide
Am                    G
make your decisions - live them with pride
C                G
wait for the sun to shine right through
Am         E        Am
Lord, have mercy, I know I would do


|----------------------|
|REPEAT CHORUS 2 TIMES |
|----------------------|



|----|  PLAY CHORUS                   
|SOLO|  CHORDS THROUGH SOLO x2
|----|                     
                         
GUITAR 1
[---b---b--b------------|----h--h------h--h---|---------h-----------]
[--15--15-15--15-13-12--|--12-13-15--12-13-15-|-13-12-12-13---------]
[-----------------------|---------------------|--------------14-----]
[-----------------------|---------------------|-----------------14--]
[-----------------------|---------------------|---------------------]
[-----------------------|---------------------|---------------------]

GUITAR 1
[-----------------------|----------------------------|--------]
[-----------------------|----------------------------|--------]
[-----------b----p--s---|----p-----------------------|--------]
[--s----10-12--12-10\9--|--10-9----9----s-----10-----|--------]
[--\-12-----------------|-------10---10-\-12-----12--|-10-12--]
[-----------------------|----------------------------|--------]

GUITAR 1
[-----------------------|----------------------------|---------]
[-----------------------|----------------------------|---------]
[-----------b----p--s---|---h--h-----h--h------------|---------]
[--s----10-12--12-10\9--|--9-10-12--9-10-12--10-9-10-|--12-14--]
[--\-12-----------------|----------------------------|---------]
[-----------------------|----------------------------|---------]

 GUITAR 1                                   
[--------------------h-------]
[--13-15-17-15--13-12-13-10--]
[----------------------------]
[----------------------------]
[----------------------------]
[----------------------------]
|                            |
|GUITAR 2                    |
[--------------------h-------]
[--10--12-13-12--10-8-10-10--]
[----------------------------]
[----------------------------]
[----------------------------]
[----------------------------]

               hold
[---b------------b--15---r------------h--p----------------------------]
[--15-15--13-15-15------15-13-12-13-12-13-12---------------------s----]
[--------------------------------------------14-13-12----------12\14--]
[-----------------------------------------------------14-13-12--------]
[---------------------------------------------------------------------]
[---------------------------------------------------------------------]


[---------------|----h--p-------|------------h---p------]
[-----12-13-12--|--12-13-12-----|-----15--12---13-12----]
[--14-----------|-----------14--|--12----------------14-]                   
[---------------|---------------|-----------------------]
[---------------|---------------|-----------------------]
[---------------|---------------|-----------------------]

                                                                         br
[--------------------b------|---------b--15---r------------h----|----12-15--]
[------------15-13--15--15--|--13-15-15------15-13-12-13-12-13--|-15--------]
[--s---12-14----------------|-----------------------------------|-----------]
[--\14----------------------|-----------------------------------|-----------]
[---------------------------|-----------------------------------|-----------]
[---------------------------|-----------------------------------|-----------]

 GUITAR 1
[--------------------------|--13-12---------------------]
[--13--15-17-15--13-15-17--|--------13--15-13-12--------]
[--------------------------|---------------------12-14--]
[--------------------------|----------------------------]
[--------------------------|----------------------------]
[--------------------------|----------------------------]
|                                      |
|GUITAR 2                              |
[----------h---------------|-----------]
[-10--12-12-13-12--10-8-10-|--12-13-12-]
[--------------------------|-----------]
[--------------------------|-----------]
[--------------------------|-----------]
[--------------------------|-----------]



|-------------|
|REPEAT CHORUS|
|-------------|


G                        Am
Now the wind has broken, us into two
G                          Am
the chills cooled me down - what's the right to do
G              Am
wanna be safe, I wanna be warm
F       G       Am
 AUTUMN   STORM



THE END
http://www.abarax.de/
Tap to rate this tab
 
# A B C D E F G H I J K L M N O P Q R S T U V W X Y Z