Song name
# A B C D E F G H I J K L M N O P Q R S T U V W X Y Z

Abba - Summer Night City tab

-----------|
---3-----3-|
--2---2-2--|
-0-----0---|
-----------|

-----------|
---3-----3-|
--3---3-3--|
-0-----0---|
-----------|
-----------|

-----------|
---3-----3-|
--2---2-2--|
-0-----0---|
-----------|

-----------|
---3-----3-|
--3---3-3--|
-0-----0---|
-----------|
-----------|

Repit it many tims.
Tap to rate this tab
# A B C D E F G H I J K L M N O P Q R S T U V W X Y Z