Song name
# A B C D E F G H I J K L M N O P Q R S T U V W X Y Z

Abba - When All Is Said And Done tab

Intro:

-------0-------0-- ----0-------0--------0------0-------0----------|
-0- -0-------0-------0-------0--------0------0-------0------------|
------------------------------------------------------------------|  x 2
---------------------------------------------------------6-7-6----|
-2/7---- 7-6-----6-4---- 4-2------2-0----0-2-----2/7--------------|
------------------------------------------------------------------|

E         Esus4  E##
 ^  \/ ^
-0--0--0---0-----0-----------|
-0--0--0---0-----0-----------|
-1--1--1---2-----4-----------|
-2--2--2---2-----4-----------|
-2--2--2---2-----4-----------|
-0--0--0---0-----------------|

E           A                  B                 E
Heres to us one more toast and then well pay the bill
E           A              B               E
Deep inside both of us can feel the autumn chill
E        Esus4    Esus2
Birds of passage, you and me
   B             E
We fly instinctively
E        Esus     A           B                    E
When the summers over and the dark clouds hide the sun
E               A                B               E
Neither you nor Im to blame when all is said and done
(You could play chords or simply pick the intro for that part)

In our lives we have walked some strange and lonely treks
Slightly worn but dignified and not too old for sex
Were still striving for the sky
No taste for humble pie
Thanks for all your generous love and thanks for all the fun
Neither you nor Im to blame when all is said and done

Its so strange when youre down and lying on the floor
How you rise, shake your head, get up and ask for more
Clear-headed and open-eyed
With nothing left untried
Standing calmly at the crossroads,no desire to run
Theres no hurry any more when all is said and done

Standing calmly at the crossroads,no desire to run
Theres no hurry any more when all is said and done
Tap to rate this tab
# A B C D E F G H I J K L M N O P Q R S T U V W X Y Z