Song name
# A B C D E F G H I J K L M N O P Q R S T U V W X Y Z

Abba - Honey Honey tab

Hi! This is tab for Abba's song 'Honey honey'. Hpoe you like it! :)

E|-------4-0-----------------------4-0---------------|
B|5-5-4-5---4-5-0-2-5-5-4-5-5-5-4-5---4-5-0-2-5-5-4-5|
G|---------------------------------------------------|
D|---------------------------------------------------|
A|---------------------------------------------------|
E|---------------------------------------------------|

E|7-7-7-------7-7-7--------7-7-7---------------5-5-4-5-4-5-7|
B|-----9-9-5-0-----9-9-5-0------9-9-5-0-0-0-2-5-------------|
G|----------------------------------------------------------|
D|----------------------------------------------------------|
A|----------------------------------------------------------|
E|----------------------------------------------------------|

[etc]

Nameless.G.(Nameless Guitarist)
Tap to rate this tab
# A B C D E F G H I J K L M N O P Q R S T U V W X Y Z