Song name
# A B C D E F G H I J K L M N O P Q R S T U V W X Y Z

Abby Dobson - Rise Up tab

Song: Rise Up
Artist: Abby Dobson
Album: Rise Up

There's very little guitar in this, but I've tabbed 
what I can hear - it's not 100% but it's a start. 

Enter guitar at 0:10
Intro/Verse
E|----------------------------------------|
A|---------------5----------------5-------|
D|----------5----------------5------------|
G|-----7----------------6-----------------|
B|----------------------------------------|          
E|----------------------------------------|

|-----------------------------------------|
|---------------3----------------3--------|
|----------5-----------------5------------|
|-----5------------------4----------------|
|-----------------------------------------|
|-----------------------------------------|

(repeat these two bars several times)

Chorus

|-----------------------------------------|
|-----------------------------------------|
|----------4---5-------------5---7--------|
|-----3----------------5------------------|    
|-----------------------------------------|
|-----------------------------------------| (x2)
                   
|-------------------|
|-------------------|
|--------4---5------|
|---3---------------|
|-------------------|
|-------------------|

Repeat verse and chorus tab


Then:
'All the sins of the father...'

|-----------------------------|
|---------17-----------15-----|
|---14-----------14-----------|
|-----------------------------|
|-----------------------------|
|-----------------------------|

'Why’s it take a world of love...'

|-----------------------------|
|-------17---------17---------|
|--14--------14---------------|
|-----------------------------|
|-----------------------------|
|-----------------------------|   (x 2)


'There’s a murmur in my heart...'

(I'm not 100% sure about this part)

|-----------------------------|
|--------------------17-------|
|---14-13-13-13---------------|
|-----------------------------|
|-----------------------------|
|-----------------------------| (x3)


Guitar ends
Tap to rate this tab
 
# A B C D E F G H I J K L M N O P Q R S T U V W X Y Z