Song name
# A B C D E F G H I J K L M N O P Q R S T U V W X Y Z

Abel Fleury - Milongueo Del Ayer tab

Milongueo Del Ayer  
~  as recorded by Abel Fleury   ~ 

tab by Avi Yaacov
Israel, February 15, 2014


This tab is based on the transcription made by David Keyser, with very small 
changes made in order to be easily read and played.

This is a really great piece...

{to print - copy and paste into word in wide Landscape format)



       Am                       E                     E                            Am

e|------0------0------(0)--|------0--------0------|------0--------0-----(0)--|-----0------0------|
B|--------1------1---------|---------3-------3----|---------3-------3--------|-------1------1----|
G|----------2------2-------|-----------4-------4--|-----------4-------4------|---------2------2--|
D|----------2------2-------|-----------6-------6--|-----------6-------6------|---------2------2--|
A|--0----------------------|----------------------|--------------------------|--0----------------|
E|-------------------------|--0-------------------|--0-----------------------|-------------------| X2


                                                                        
e||-------4h5-0---3-----1----|--0-----------1--|--1-0--------|-----------0--|
B||-----------------3-----4--|-----3-----------|--------0-3--|--3-1---------|
G||*-------------------------|-----------1-----|------1------|--------2-----|
D||*-------------------------|-----------------|-------------|------2-------|
A||---0----------------------|--------2--------|-------------|--0-----------|
E||--------------------------|--0--------------|--0----------|--------------|



                                                   ____________1    _____________2

                          E7       E             Am
e|--0------------|-------------|---------------|---------------||---------0-----||
B|-----3------1--|--1-0-----3--|-----1------0--|----1----------||---------------||
G|----------2----|--------1----|----------1----|--2-----2-----*||--2------------||
D|--------2------|------2------|--------2------|------2-------*||-----2---------||
A|--0------------|-------------|---------------|--0------------||--0------------||
E|---------------|--0----------|--0------------|-----------0---||------------0--||



e|------8-------8-------8--|------8-------7------|------7-------7------7--|------7----------5------|
B|--------5-------5--------|--------5-------5----|--------5-------5-------|--------5----------5----|
G|----------5-------5------|----------7-------7--|----------7-------7-----|----------5----------5--|
D|----------7-------7------|----------6-------6--|----------6-------6-----|----------7----------7--| 
A|--0----------------------|---------------------|------------------------|--0-----------0---------|
E|-------------------------|--0------------------|--0---------------------|------------------------|X2




e|------5-------------------|------1------0------|-----3------1------0--|-----1-------0------|
B|---------------8-------6--|--------0------0----|-------0------0-------|-------1-------1----|
G|---------5-------5--------|----------1------1--|---------1------1-----|---------2-------2--|
D|-----------7-------7------|----------2------2--|---------2------2-----|---------2-------2--|
A|--0-----------------------|--------------------|----------------------|--0-----------------|
E|--------------------------|--0-----------------|--0-------------------|--------------------|




e|------0-------1------0--|------1------0------|-----0------1------0--|-----1------0------|
B|--------1-------1-------|--------0------0----|-------0------0-------|-------1------1----|
G|----------2-------2-----|----------1------1--|---------1------1-----|---------2------2--|
D|----------2-------2-----|----------2------2--|---------2------2-----|---------2------2--|
A|--0---------------------|--------------------|----------------------|--0----------------|
E|------------------------|--0-----------------|--0-------------------|-------------------|




e|------5-----------------|------0-----------------|---------------------------|
B|--------------8------6--|--------0-----3------1--|----0------1------0--------|
G|---------5------5-------|-----------1----1-------|------1------1---------2---|
D|-----------7------7-----|-----------2------2-----|--------2------2-----------|
A|--0---------------------|------------------------|-----------------------0---|
E|------------------------|--0---------------------|--0------------------------|


e|--------0----|--------0----|--------0----|-------0----|
B|-------------|-------------|-------------|------------|
G|-----9----9--|-----9----9--|-----9----9--|----7----7--|
D|--10---------|--10---------|--10---------|--9---------|
A|-------------|-------------|-------------|------------|
E|-------------|-------------|-------------|------------|


e|---------0-----|--------0----|-------0----|-------0----|
B|---------------|-------------|------------|------------|
G|-----10----10--|-----9----9--|----7----7--|----5----5--|
D|--12-----------|--10---------|--9---------|--7---------|
A|---------------|-------------|------------|------------|
E|---------------|-------------|------------|------------|



e|--------0----|-------0----|-------0----|-------0----|-------0----|-------0-----|-------0----|-----|
B|-------------|------------|------------|------------|------------|-------------|------------|-----|
G|-----9----9--|----7----7--|----5----5--|----4----4--|----7----7--|----5-----5--|----4----4--|-----|
D|--10---------|--9---------|--7---------|--6---------|--9---------|--7----------|--6---------|--7--|
A|-------------|------------|------------|------------|------------|-------------|------------|-----|
E|-------------|------------|------------|------------|------------|-------------|------------|-----|




e|-------------|-----------|-----------|-----------|-----------|-----------|-----------|-----|---5~--|
B|-------10----|------8----|------6----|------5----|------3----|------1----|------0----|-----|---5~--|
G|-----9----9--|----7---7--|----5---5--|----4---4--|----2---2--|----2---2--|----1---1--|--2--|---5~--|
D|--10---------|--9--------|--7--------|--6--------|--3--------|--2--------|--0--------|--2--|-------|
A|-------------|-----------|-----------|-----------|-----------|-----------|-----------|--0--|---0---|
E|-------------|-----------|-----------|-----------|-----------|-----------|-----------|-----|-------|
Tap to rate this tab
# A B C D E F G H I J K L M N O P Q R S T U V W X Y Z