Song name
# A B C D E F G H I J K L M N O P Q R S T U V W X Y Z

Abeto Soap Smellers - Green Eggs And Ham tab

Standard Tuning

   on last time hold ninth fret bend 

Intro
|-----------------------| Repeat Four Times
|-------------0---------|  
|---------------9^-----o|
|----------------------o|
|-----------------------|
|--0-0-0-0-0-0----------|
   P.M........

Verse
|-----------------------------------------------|
|-----------------------------------------------|
|-----------------------------------------------|
|-6--6-6--6--5--5-5--5--4--4-4--4--3--3-3--3----|
|-6--6-6--6--5--5-5--5--4--4-4--4--3--3-3--3----|
|-4--4-4--4--3--3-3--3--2--2-2--2--1--1-1--1----|

Solo (EASY)
|-------------------------------------------------------|
|-------------------------------------------------------|
|-------------------------------------------------------|
|-------------------------------------------------------|
|--------------------------------------------------7h8h9|
|0h1h2h3-2h3h4-4h5h6-6h7h8-7h8h9-7h8h9-7h8h9-7h8h9------|

|-------------------7h8h9^-9-7p6h7-----------------------|
|-------------7h8h9---------------h9-9-7p6h7-------------|
|-------7h8h9-------------------------------h9-9-7p6h7---|
|-7h8h9-----------------------------------------------h9-|
|--------------------------------------------------------|
|--------------------------------------------------------|

|-------------------------|
|-------------------------|
|-6-7-9-7-6h7p6--6--------|
|--------------h9--7-9~~~-|
|-------------------------|
|-------------------------|

thats it!
Tap to rate this tab
# A B C D E F G H I J K L M N O P Q R S T U V W X Y Z