Abhinanda - Highway Tonight tab

Abhinanda - Highway Tonight

Album: The Rumble
Instrument: Guitar
Tuning: Drop D

Tabbed By: Rolf Oslo

http://www.abhinandarock.com/

Intro
             <------------- x 4 -------------->
e||---------|----------------------------------|
B||---------|----------------------------------|
G||-----0---|---------------------0---3----0---|
D||-------0-|---0-----0-----0----------------0-|
A||-0h1-----|-----1-----1-----3/5---5---0h1----|
D||---------|-5-----4-----3--------------------|


e||-------------------------------------|-------------------------------------|
B||-------------------------------------|-------------------------------------|
G||----------------------0---3-----0----|----------------------0---3-----0----|
D||-5-5-5-4-4-4-5-5------------------0--|-1-1-1-3-3-3-0-0------------------0--|
A||-5-5-5-4-4-4-5-5--3/5---5---0h1------|-1-1-1-3-3-3-0-0--3/5---5---0h1------|
D||-5-5-5-4-4-4-5-5---------------------|-1-1-1-3-3-3-0-0---------------------|


e||---------------------------------|-----------------|
B||---------------------------------|-----------------|
G||---------------------------------|-----------------|
D||-5-5-5-4-4-4-5-5-----------------|-1-1-1-3-3-3-0-0-|
A||-5-5-5-4-4-4-5-5-----------------|-1-1-1-3-3-3-0-0-|
D||-5-5-5-4-4-4-5-5-----------------|-1-1-1-3-3-3-0-0-|


Verse

e||------------------------------|
B||------------------------------|
G||------------------------------|
D||-4-4-2---4-4-2---4-4-2-4--4-2-|
A||-4-4-2---4-4-2---4-4-2-4--4-2-|
D||-4-4-2---4-4-2---4-4-2-4--4-2-| x9



Chorus

e||------------------------------------------------|
B||------------------------------------------5~----|
G||--------------8-8-8-7--7-7----------------4~----|
D||-7-7-7-5--7-7-8-8-8-7--7-7--8-8-8-4--4-4--2~----|
A||-7-7-7-5--7-7-6-6-6-5--5-5--8-8-8-4--4-4--2~----|
D||-7-7-7-5--7-7---------------8-8-8-4--4-4--2~----| x2


Verse

e||------------------------------|
B||------------------------------|
G||------------------------------|
D||-4-4-2---4-4-2---4-4-2-4--4-2-|
A||-4-4-2---4-4-2---4-4-2-4--4-2-|
D||-4-4-2---4-4-2---4-4-2-4--4-2-| x4


Chorus

e||------------------------------------------------|
B||------------------------------------------5~----|
G||--------------8-8-8-7--7-7----------------4~----|
D||-7-7-7-5--7-7-8-8-8-7--7-7--8-8-8-4--4-4--2~----|
A||-7-7-7-5--7-7-6-6-6-5--5-5--8-8-8-4--4-4--2~----|
D||-7-7-7-5--7-7---------------8-8-8-4--4-4--2~----| x2

then
e||---------------------------------|--------------------------------|
B||---------------------------------|--------------------------------|
G||---------------------------------|--------------------------------|
D||-5-5-5-4-4-4-5-5-----------------|-1-1-1-3-3-3-0-0----------------|
A||-5-5-5-4-4-4-5-5-----------------|-1-1-1-3-3-3-0-0----------------|
D||-5-5-5-4-4-4-5-5-----------------|-1-1-1-3-3-3-0-0----------------| x4


Outro
e||------------------------------|
B||------------------------------|
G||------------------------------|
D||-4-4-2---4-4-2---4-4-2-4--4-2-|
A||-4-4-2---4-4-2---4-4-2-4--4-2-|
D||-4-4-2---4-4-2---4-4-2-4--4-2-|

Tap to rate this tab
 
# A B C D E F G H I J K L M N O P Q R S T U V W X Y Z