Song name
# A B C D E F G H I J K L M N O P Q R S T U V W X Y Z

Abhinanda - Junior tab

Abhinanda - Junior

Album: The Rumble
Instrument: Guitar
Tuning: eBGDAE

Tabbed By: Rolf Oslo


Intro

e||-------------------------------------|
B||-------------------------------------|
G||----------------8-8-8-8-8-8-8-8------|
D||-4--4-4-2--2-2--8-8-8-8-8-8-8-8--7---|
A||-4--4-4-2--2-2--6-6-6-6-6-6-6-6--7---|
E||-2--2-2-0--0-0-------------------5---|


Verse

e||-------------------------------|-----------------------------------------------|
B||-------------------------------|-----------------------------------------------|
G||-------------------------------|----------------8-8-8-8-8-8-8-8----------------|
D||-------------------------------|-4--4-4-2--2-2--8-8-8-8-8-8-8-8--7-7---7---7---|
A||-4-4-4-2-4-4-4-2-4-4-4-2-4-4-4-|-4--4-4-2--2-2--6-6-6-6-6-6-6-6--7-7---7---7---|
E||-2-2-2-0-2-2-2-0-2-2-2-0-2-2-2-|-2--2-2-0--0-0-------------------5-5-0-5-0-5-0-| x3
pm  * * * * * * * * * * * * * * *

e||-------------------------------|------------------|
B||-------------------------------|------------------|
G||-------------------------------|-7--7-7-7---------|
D||-------------------------------|-7--7-7-7--7--4---|
A||-4-4-4-2-4-4-4-2-4-4-4-2-4-4-4-|-5--5-5-5--7--4---|
E||-2-2-2-0-2-2-2-0-2-2-2-0-2-2-2-|-----------5--2---| 
pm  * * * * * * * * * * * * * * *


Chorus

e||---------------------------------|
B||---------------------------------|
G||---------------------------------|
D||-----------------------------5-4-|
A||-4-2-4-7--7-4-2-6-7--7-2-4-2-3-2-|
E||-2-0-2-5--5-2-0-4-5--5-0-2-0-----| x2

e||------------------------------------------------------------|
B||------------------------------------------------------------|
G||------------------------------------------------------------|
D||-------------------------------8--8-8-8-8-8-8-8-8-8-8-8-7-5-|
A||-4-2-4-7--7-4-2-6-7--7-2-4-2-4-8--8-8-8-8-8-8-8-8-8-8-8-7-5-|
E||-2-0-2-5--5-2-0-4-5--5-0-2-0-2-6--6-6-6-6-6-6-6-6-6-6-6-5-3-| 

e||---------------------------------|
B||---------------------------------|
G||---------------------------------|
D||-----------------------------5-4-|
A||-4-2-4-7--7-4-2-6-7--7-2-4-2-3-2-|
E||-2-0-2-5--5-2-0-4-5--5-0-2-0-----| x2

e||------------------------------------------------------------|-------|
B||------------------------------------------------------------|-------|
G||------------------------------------------------------------|-------|
D||-------------------------------8--8-8-8-8-8-8-8-8-8-8-8-7-5-|-4~----|
A||-4-2-4-7--7-4-2-6-7--7-2-4-2-4-8--8-8-8-8-8-8-8-8-8-8-8-7-5-|-4~----|
E||-2-0-2-5--5-2-0-4-5--5-0-2-0-2-6--6-6-6-6-6-6-6-6-6-6-6-5-3-|-2~----|


Verse

e||-----------------------------------------------|
B||-----------------------------------------------|
G||----------------8-8-8-8-8-8-8-8----------------|
D||-4--4-4-2--2-2--8-8-8-8-8-8-8-8--7-7---7---7---|
A||-4--4-4-2--2-2--6-6-6-6-6-6-6-6--7-7---7---7---|
E||-2--2-2-0--0-0-------------------5-5-0-5-0-5-0-|

e||-------------------------------|----------------------|
B||-------------------------------|----------------------|
G||-------------------------------|----------------------|
D||-------------------------------|-4--4-4-2--2-2--4--7--|
A||-4-4-4-2-4-4-4-2-4-4-4-2-4-4-4-|-4--4-4-2--2-2--4--7--|
E||-2-2-2-0-2-2-2-0-2-2-2-0-2-2-2-|-2--2-2-0--0-0--2--5--| 
pm  * * * * * * * * * * * * * * *


Chorus

e||---------------------------------|
B||---------------------------------|
G||---------------------------------|
D||-----------------------------5-4-|
A||-4-2-4-7--7-4-2-6-7--7-2-4-2-3-2-|
E||-2-0-2-5--5-2-0-4-5--5-0-2-0-----| x2

e||------------------------------------------------------------|
B||------------------------------------------------------------|
G||------------------------------------------------------------|
D||-------------------------------8--8-8-8-8-8-8-8-8-8-8-8-7-5-|
A||-4-2-4-7--7-4-2-6-7--7-2-4-2-4-8--8-8-8-8-8-8-8-8-8-8-8-7-5-|
E||-2-0-2-5--5-2-0-4-5--5-0-2-0-2-6--6-6-6-6-6-6-6-6-6-6-6-5-3-| 

e||---------------------------------|
B||---------------------------------|
G||---------------------------------|
D||-----------------------------5-4-|
A||-4-2-4-7--7-4-2-6-7--7-2-4-2-3-2-|
E||-2-0-2-5--5-2-0-4-5--5-0-2-0-----| x2

e||-------------------------------|------------------|
B||-------------------------------|------------------|
G||-------------------------------|----------8-------|
D||-------------------------------|-10-------8-------|
A||-4-2-4-7--7-4-2-6-7--7-2-4-2-4-|-10-------6-(x14)-|
E||-2-0-2-5--5-2-0-4-5--5-0-2-0-2-|-8--(x16)---------|

e||----------------|
B||----------------|
G||-----7---4------|
D||-4---7---4---3--|
A||-4---5---2---3--|
E||-2-----------1--| x3


Verse / Outro

e||-------------------------------|-----------------------------------------------|
B||-------------------------------|-----------------------------------------------|
G||-------------------------------|----------------8-8-8-8-8-8-8-8----------------|
D||-------------------------------|-4--4-4-2--2-2--8-8-8-8-8-8-8-8--7-7---7---7---|
A||-4-4-4-2-4-4-4-2-4-4-4-2-4-4-4-|-4--4-4-2--2-2--6-6-6-6-6-6-6-6--7-7---7---7---|
E||-2-2-2-0-2-2-2-0-2-2-2-0-2-2-2-|-2--2-2-0--0-0-------------------5-5-0-5-0-5-0-| x3
pm  * * * * * * * * * * * * * * *

e||-------------------------------|-----------------------------------|
B||-------------------------------|-----------------------------------|
G||-------------------------------|------------------7--7-7-7---------|
D||-------------------------------|-4--4-4-2--2-2-2--7--7-7-7--7--4---|
A||-4-4-4-2-4-4-4-2-4-4-4-2-4-4-4-|-4--4-4-2--2-2-2--5--5-5-5--7--4---|
E||-2-2-2-0-2-2-2-0-2-2-2-0-2-2-2-|-2--2-2-0--0-0-0------------5--2---| 
pm  * * * * * * * * * * * * * * *

Tap to rate this tab
 
# A B C D E F G H I J K L M N O P Q R S T U V W X Y Z