Guitaretab - guitar tabs
Song name
# A B C D E F G H I J K L M N O P Q R S T U V W X Y Z

Abigail Williams - From A Buried Heart tab

Tuning: CGCFAd (Low to High)

These are an amazing band, I'm soooo surprised there are no tabs for them.
Im pretty sure it's right, I missed a couple of harmonics, but u shud be able to figure 
out lol i couldn't be arsed to type them :-D
The end of the solo is missing cuz i really can't figure it out :S lol
For the harmonies I used diatonic, but I'm not sure if thats what Abigail Williams use, 
it sounds fine!!
Anyway, enjoy

------------
  Guitar 1
------------

-----------------------------------------|
-----------------------------------------|
-----------------------------------------|
--0--5-7--8--7-5----0--5-7--7-8-7-5\3----| x1
--0--5-7--8--7-5----0--5-7--7-8-7-5\3----|
--0--5-7--8--7-5----0--5-7--7-8-7-5\3----|

-----------------------------------------------------|
-----------------------------------------------------|
-----------------------------------------------------|
--0--5-7--8--7-5----0--5-7--7-8-7--------------------| x1
--0--5-7--8--7-5----0--5-7--7-8-7-000-000-000-000----|
--0--5-7--8--7-5----0--5-7--7-8-7-000-000-000-000----|
                                  ... ... ... ...

--------------------------------------------------|
--------------------------------------------------|
--------------------------------------------------|
--------------------------------------------------| x4
--------8---7---5----------------8-7-------8-7----|
--0-000---0---0---00-7--7--8-888-----7-777--------|
  . ...   .   .   ..         ...       ...

----------------------------------------------\---- /
--------------------------------------------------- / \
--------------------------------------------------- /  \
--------------------------------------------------- /   \
--000000-000-0-0-0000-0000000-000-0-0-0000--------- /    \
--000000-000-0-0-0000-0000000-000-0-0-0000--------- /     \
  ...... ... . . .... ....... ... . . ....          \
                                                     \ x2
----------------------------------------------      -- /
----------------------------------------------     --- /
----------------------------------------------    ---- /
----------------------------------------------   ----- /
--888888-888-8-8-8888-8888888-888-8-3-3333----  ------ /
--888888-888-8-8-8888-8888888-888-8-3-3333---- ------- /
  ...... ... . . .... ....... ... . . ....     /

--------------------------------------------------|
--------------------------------------------------|
--------------------------------------------------|
--------------------------------------------------| x4
--------8---7---5----------------8-7-------8-7----|
--0-000---0---0---00-7--7--8-888-----7-777--------|
  . ...   .   .   ..         ...       ...

----------------------------------------------------------|
----------------------------------------------------------|
---8\7------8\7--------8\7----8\7-------------------------|
---x\x------x\x--------x\x----x\x-------------------------| x2
---6\5-0000-8\5-000000-6\5-00-6\5-0000---------888-777----|
-------0000-----000000-----00-----0000-777-888------------|
       ....     ......     ..     .... ... ... ... ...

---------------------------------------------------------|
---------------------------------------------------------|
---8\7--------------------8\7----------------------------|
---x\x--------------------x\x----------------------------| x2
---6\5-0000-0-000-0-00-006\5-0000-00---------888-777----|
-------0000-0-000-0-00-00-----0000-00-777-888------------|
       .... . ... . .. ..     .... ..


-----------------------------------------|
-----------------------------------------|
-----------------------------------------|
-----------------------------------------| x4
----8-8-----8-8-----8-8-8----88----88----|
--0-----0-7-----0-8-------10----11-------|

----------------------------------------------\---- /
--------------------------------------------------- / \
--------------------------------------------------- /  \
--------------------------------------------------- /   \
--000000-000-0-0-0000-0000000-000-0-0-0000--------- /    \
--000000-000-0-0-0000-0000000-000-0-0-0000--------- /     \
  ...... ... . . .... ....... ... . . ....          \
                                                     \ x2
----------------------------------------------      -- /
----------------------------------------------     --- /
----------------------------------------------    ---- /
----------------------------------------------   ----- /
--888888-888-8-8-8888-8888888-888-8-3-3333----  ------ /
--888888-888-8-8-8888-8888888-888-8-3-3333---- ------- /
  ...... ... . . .... ....... ... . . ....     /

--------------------------------------------------|
--------------------------------------------------|
--------------------------------------------------|
--------------------------------------------------| x4
--------8---7---5----------------8-7-------8-7----|
--0-000---0---0---00-7--7--8-888-----7-777--------|
  . ...   .   .   ..         ...       ...

----------------------------------------------------------|
----------------------------------------------------------|
---8\7------8\7--------8\7----8\7-------------------------|
---x\x------x\x--------x\x----x\x-------------------------| x2
---6\5-0000-8\5-000000-6\5-00-6\5-0000---------888-777----|
-------0000-----000000-----00-----0000-777-888------------|
       ....     ......     ..     .... ... ... ... ...

---------------------------------------------------------|
---------------------------------------------------------|
---8\7--------------------8\7----------------------------|
---x\x--------------------x\x----------------------------| x2
---6\5-0000-0-000-0-00-006\5-0000-00---------888-777----|
-------0000-0-000-0-00-00-----0000-00-777-888------------|
       .... . ... . .. ..     .... ..

-----------------------------------------|
-----------------------------------------|
-----------------------------------------|
-----------------------------------------| x4
----8-8-----8-8-----8-8-8----88----88----|
--0-----0-7-----0-8-------10----11-------|

--------8-8h10p8h10p8h10p8h10p8-12h13p12h13p12h13p12h13--|
----7-8--------------------------------------------------|
--8------------------------------------------------------|
---------------------------------------------------------|
---------------------------------------------------------|
---------------------------------------------------------|

--/17-15-13-----------------------------------------------------|
------------17-12h13p12h13--------------------------------------|
---------------------------10h12p10h12--------------------------|
---------------------------------------10h12p10h12--------------|
---------------------------------------------------8h10p8h10----|
----------------------------------------------------------------|

---------------------------------------------------------------------------|
---------------------------------------------------------------------------|
--------------------------------------------------------12h13h15-12h13h15--|
--------------------10h12h13-10h12h13-12h13h15-12h13h15--------------------|
--10h12h13-10h12h13--------------------------------------------------------|
---------------------------------------------------------------------------|


------------
  Guitar 2
------------

-----------------------------------------|
-----------------------------------------|
-----------------------------------------|
--0--5-7--8--7-5----0--5-7--7-8-7-5\3----| x1
--0--5-7--8--7-5----0--5-7--7-8-7-5\3----|
--0--5-7--8--7-5----0--5-7--7-8-7-5\3----|

-----------------------------------------------------|
-----------------------------------------------------|
-----------------------------------------------------|
--0--5-7--8--7-5----0--5-7--7-8-7--------------------| x1
--0--5-7--8--7-5----0--5-7--7-8-7-000-000-000-000----|
--0--5-7--8--7-5----0--5-7--7-8-7-000-000-000-000----|
                                  ... ... ... ...
[ Tab from: http://www.guitaretab.com/a/abigail-williams/84583.html ]
--------------------------------------------------|
--------------------------------------------------|
--------------------------------------------------|
--------------------------------------------------| x2
--------8---7---5----------------8-7-------8-7----|
--0-000---0---0---00-7--7--8-888-----7-777--------|
  . ...   .   .   ..         ...       ...

--------------------------------------------------------|
--------------------------------------------------------|
--------------------------------------------------------|
--------------------------------------------------------| x2
--------12---10---8----------------12-10-------12-10----|
--0-000----0----0---00-7--7--8-888-------7-777----------|
  . ...    .    .   ..         ...         ...

----------------------------------------------\---- /
--------------------------------------------------- / \
--------------------------------------------------- /  \
--------------------------------------------------- /   \
--000000-000-0-0-0000-0000000-000-0-0-0000--------- /    \
--000000-000-0-0-0000-0000000-000-0-0-0000--------- /     \
  ...... ... . . .... ....... ... . . ....          \
                                                     \ x2
----------------------------------------------      -- /
----------------------------------------------     --- /
----------------------------------------------    ---- /
----------------------------------------------   ----- /
--888888-888-8-8-8888-8888888-888-8-3-3333----  ------ /
--888888-888-8-8-8888-8888888-888-8-3-3333---- ------- /
  ...... ... . . .... ....... ... . . ....     /


--------------------------------------------------|
--------------------------------------------------|
--------------------------------------------------|
--------------------------------------------------| x2
--------8---7---5----------------8-7-------8-7----|
--0-000---0---0---00-7--7--8-888-----7-777--------|
  . ...   .   .   ..         ...       ...

--------------------------------------------------------|
--------------------------------------------------------|
--------------------------------------------------------|
--------------------------------------------------------| x2
--------12---10---8----------------12-10-------12-10----|
--0-000----0----0---00-7--7--8-888-------7-777----------|
  . ...    .    .   ..         ...         ...

-----------------------------------------------------------|
-----------------------------------------------------------|
---8\7------8\7--------8\7----8\7--------------------------|
---x\x------x\x--------x\x----x\x---------------777-333----| x2
---6\5-0000-8\5-000000-6\5-00-6\5-0000--333-777------------|
-------0000-----000000-----00-----0000---------------------|
       ....     ......     ..     ....  ... ... ... ...

----------------------------------------------------------|
----------------------------------------------------------|
---8\7--------------------8\7-----------------------------|
---x\x--------------------x\x------------------777-333----| x2
---6\5-0000-0-000-0-00-006\5-0000-00--333-777------------|
-------0000-0-000-0-00-00-----0000-00---------------------|
       .... . ... . .. ..     .... ..

-----------------------------------------|
-----------------------------------------|
-----------------------------------------|
-----------------------------------------| x2
----8-8-----8-8-----8-8-----88----88-----|
--0-----0-7-----0-8------10----11--------|

-----------------------------------------|
-----------------------------------------|
-----------------------------------------|
----7-7-----7-7-----7-7------77----77----| x2
-----------------------------------------|
--0-----0-7-----0-8-------10----11-------|

----------------------------------------------\---- /
--------------------------------------------------- / \
--------------------------------------------------- /  \
--------------------------------------------------- /   \
--000000-000-0-0-0000-0000000-000-0-0-0000--------- /    \
--000000-000-0-0-0000-0000000-000-0-0-0000--------- /     \
  ...... ... . . .... ....... ... . . ....          \
                                                     \ x2
----------------------------------------------      -- /
----------------------------------------------     --- /
----------------------------------------------    ---- /
----------------------------------------------   ----- /
--888888-888-8-8-8888-8888888-888-8-3-3333----  ------ /
--888888-888-8-8-8888-8888888-888-8-3-3333---- ------- /
  ...... ... . . .... ....... ... . . ....     /

--------------------------------------------------|
--------------------------------------------------|
--------------------------------------------------|
--------------------------------------------------| x2
--------8---7---5----------------8-7-------8-7----|
--0-000---0---0---00-7--7--8-888-----7-777--------|
  . ...   .   .   ..         ...       ...

--------------------------------------------------------|
--------------------------------------------------------|
--------------------------------------------------------|
--------------------------------------------------------| x2
--------12---10---8----------------12-10-------12-10----|
--0-000----0----0---00-7--7--8-888-------7-777----------|
  . ...    .    .   ..         ...         ...

-----------------------------------------------------------|
-----------------------------------------------------------|
---8\7------8\7--------8\7----8\7--------------------------|
---x\x------x\x--------x\x----x\x---------------777-333----| x2
---6\5-0000-8\5-000000-6\5-00-6\5-0000--333-777------------|
-------0000-----000000-----00-----0000---------------------|
       ....     ......     ..     ....  ... ... ... ...

----------------------------------------------------------|
----------------------------------------------------------|
---8\7--------------------8\7-----------------------------|
---x\x--------------------x\x------------------777-333----| x2
---6\5-0000-0-000-0-00-006\5-0000-00--333-777------------|
-------0000-0-000-0-00-00-----0000-00---------------------|
       .... . ... . .. ..     .... ..

------------------------------------------ /
------------------------------------------ /
------------------------------------------ /
------------------------------------------ / x2
----8-8-----8-8-----8-8-----88----88------ /
--0-----0-7-----0-8------10----11--------- /

-----------------------------------------|
-----------------------------------------|
-----------------------------------------|
----7-7-----7-7-----7-7-----77----77-----| x2
-----------------------------------------|
--0-----0-7-----0-8------10----11--------|

------------10-12h13p12h13p12h13p12h13p12-15h17p15h17p15h17p15h17p15--|
------10-11-----------------------------------------------------------|
---12-----------------------------------------------------------------|
----------------------------------------------------------------------|
----------------------------------------------------------------------|
----------------------------------------------------------------------|

--/20-18-17-------------------------------------------------------|
------------2015h17p15h17----------------------------------------|
---------------------------14h15p14h15----------------------------|
---------------------------------------14h15p14h15----------------|
---------------------------------------------------12h13p12h13----|
------------------------------------------------------------------|

---------------------------------------------------------------------------|
---------------------------------------------------------------------------|
--------------------------------------------------------15h17h19-15h17h19--|
--------------------13h15h17-13h15h17-15h17h19-15h17h19--------------------|
--13h15h17-13h15h17--------------------------------------------------------|
---------------------------------------------------------------------------|
Related for From A Buried Heart tab