Guitaretab - guitar tabs
Song name
# A B C D E F G H I J K L M N O P Q R S T U V W X Y Z

Abigail Williams - Conqueror Wyrm tab

Note: Please refrain yourself from rating this tab for it is not yet finished.  I
figured out the solo or the backing guitars in the solo.  If anyone would like to help finish
song e-mail at thefallenhaverisen@hotmail.com, if you help you will receive credit.
that said, enjoy what I have so far and if you find any mistakes e-mail me your
 Thanks!

Key:
~ Let note ring
/ Slide up
\ Slide down
* Palm mute
p Pull off
h Hammer on

Intro:

Guitars I&II
---------------------------------------------------|
---------------------------------------------------|
---------------------------------------------------|
--0~~~2~3~5~~~8~7~3~~~7~~~-------------------------|
--0~~~2~3~5~~~8~7~3~~~7~~~-----------10p8p7--------|
--0~~~2~3~5~~~8~7~3~~~7~~~8888777888---------------|
                                                     |***p.m.***|

---------------------------------------------------|
---------------------------------------------------|
---------------------------------------------------|
--0~~~2~3~5~~8~~7~3~~~7~~~-------------------------|
--0~~~2~3~5~~8~~7~3~~~7~~~-----------10p8p7--------|
--0~~~2~3~5~~8~~7~3~~~7~~~8888777888---------------|
                                                     |***p.m.***|

-------------|
-------------|
-------------|
--0~~~////---|
--0~~~////---|
--0~~~////---|

Verse 1:

Part A Guitar I
---------------------------------------------------------------------------|
---------------------------------------------------------------------------|
---------------------------------------------------------------------------|
---------------------------------------------------------------------------|
--8---8---8---8----7---7---7---7---8---8----8---8--------------------------|
---000-000-000-000-000-000-000-000-000-000-000-0003000300020002000---------|
      ***   ***    ***   ***    ***  ***    ***   ***   ***   ***    ***   ***   ***   ******    ***


----------------------------------------------------------------------|
----------------------------------------------------------------------|
----------------------------------------------------------------------|
--------------------------------------8h10p8------7h8p7---------------|
--8---8---8----8---7---7---7---788888-------77777-----5555588888------|
---000-000-000-000-000-000-000----------------------------------------|
      ***   ***    ***   ***   ***   ***    ***   *****               *****            **********

Part A Guitar II
---------------------------------------------------------------------------|
---------------------------------------------------------------------------|
---------------------------------------------------------------------------|
---------------------------------------------------------------------------|
--8---8---8---8----7---7---7---7---8---8----8---8--------------------------|
---000-000-000-000-000-000-000-000-000-000-000-0003000300020002000---------|
      ***   ***    ***   ***    ***  ***    ***   ***   ***   ***    ***   ***   ***   ******    ***


----------------------------------------------------------------------|
----------------------------------------------------------------------|
----------------------------------------------------------------------|
--------------------------------------8h10p8------7h8p7---------------|
--8---8---8----8---7---7---7---788888-------77777-----5555588888------|
---000-000-000-000-000-000-000----------------------------------------|
      ***   ***    ***   ***   ***   ***    ***   *****               *****            **********

[ Tab from: http://www.guitaretab.com/a/abigail-williams/87243.html ]
Part B Guitar I
---------------------------------------------------------------------------|
---------------------------------------------------------------------------|
---------------------------------------------------------------------------|
---------------------------------------------------------------------------|
--8---8---8---8----7---7---7---7---8---8----8---8--------------------------|
---000-000-000-000-000-000-000-000-000-000-000-0003000300020002000---------|
      ***   ***    ***   ***    ***  ***    ***   ***   ***   ***    ***   ***   ***   ******    ***


----------------------------------------------------------------------|
----------------------------------------------------------------------|
----------------------------------------------------------------------|
--------------------------------------8h10p8------7h8p7---------------|
--8---8---8----8---7---7---7---788888-------77777-----5555588888------|
---000-000-000-000-000-000-000----------------------------------------|
      ***   ***    ***   ***   ***   ***    ***   *****               *****            **********


Part B Guitar II
--------------------------------------------------------------------------------|
--------------------------------------------------------------------------------|
--------------------------------------------------------------------------------|
--------------------------------------------------------------------------------|
-12---12---12---12---10---10---10---10---12---12---12---12----------------------|
---000--000--000--000--000--000--000000--000--000--000--0003000300020002000----|
      ***     ***     ***     ***      ***     ***    ***     ***      ***    ***      


------------------------------------------------------------------------------|
------------------------------------------------------------------------------|
------------------------------------------------------------------------------|
---------------------------------------------8h10p8------7h8p7----------------|
-12---12---12---12---10---10---10----788888-------77777------5555588888-------|
---000--000--000--000--000--000--000------------------------------------------|
      ***     ***     ***     ***     ***      ***     ***   *****
            **********


Bridge:

Guitar I
----------------------------------------------------------------------|
----------------------------------------------------------------------|
--7~~~/10~\9~\7~~~\3~~~/12~\10~\9~~~~~--------------------------------|
----------------------------------------------------------------------|
----------------------------------------------------------------------|
----------------------------------------------------------------------|

Guitar II
----------------------------------------------------------------------|
----------------------------------------------------------------------|
----------------------------------------------------------------------|
--0~~~000-0-0~~~~~~5~~~555-5-5~~~~~~~---------------------------------|
--0~~~000-0-0~~~~~~5~~~555-5-5~~~~~~~---------------------------------|
--0~~~000-0-0~~~~~~5~~~555-5-5~~~~~~~---------------------------------|


Chorus:

Guitar I
--------------------------------------------------------------------------|
--------------------------------------------------------------------------|
-----------------------------------------10-10----------------------------|   x4
-------------14-14-10-10----------------------10-10-8-8-------------------|
----12-8-12-8-----------12-12--12-8-12-8----------------------------------|
--00-------------------------88-------------------------------------------|

Guitar II
---------------------------------------------------------------------------|
---------------------------------------------------------------------------|
---------------------------------7-7---------------------------------------|   x4
-----------10-10-7-7----------------7-7-5-5--------------------------------|
----8-5-8-5---------8-8--8-5-8-5-------------------------------------------|
--00-------------------88--------------------------------------------------|
Related for Conqueror Wyrm tab