Guitaretab - guitar tabs
Song name
# A B C D E F G H I J K L M N O P Q R S T U V W X Y Z

Abigor - Spektrale Schattenlicher tab

Version 1.0
Transcribed by: Peter Kubik(of Abigor)
ABIGOR - Spektrale Schattenlicher (from Opus IV)

|-----------------------------------|RIFF I
|-----------------------------------|
|-------------9-10-9-7-5-7-8-7------|
|--7-9-10-9-7------------------8-5--|
|0----------------------------------|
|-----------------------------------|

|--------------------------|--------------------------|RIFF II
|--------------------------|--------------------------|
|--------------------------|--------------------------|
|--------------------------|--------------------------|
|5-------5-------5-------6-|5-------5-------5-------1-|
|3-3-3-3-3-3-3-3-3-3-3-3-4-|3-3-3-3-3-3-3-3-3-3-3-3-3-|
   x x x   x x x   x x x      x x x   x x x   x x x
|----------|-----------------|
|----------|-----------------|RIFF III
|----------|10-9-7-9-10-9-7--|
|10-9-7-9--|0--0-0-0-0--0-0--|
|0--0-0-0--|-----------------|
|----------|-----------------|
[ Tab from: http://www.guitaretab.com/a/abigor/35471.html ]
|------------|-----------------|RIFF IV
|------------|-----------------|
|10-9--------|-----------------|
|-------7-6--|-0-2-3-5-3-2-0-2-|
|-----8------|-----------------|
|------------|-----------------|

|----------------------|----------------|RIFF V
|----------------------|----------------|
|--11---------10-------|--8-------7-----|
|9----12-11-8----11-10-|6---9-6-5---8-5-|
|----------------------|----------------|
|----------------------|----------------|

|-----------|---------|-----------|---------|RIFF VI
|-----------|---------|-----------|---------|
|-----------|0--------|-----------|----0----|
|5-------5--|--4---4--|5-------5--|--6---6--|
|7-7-7-7-7--|----6----|7-7-7-7-7--|8--------|
|--x-x-x----|---------|--x-x-x----|---------|

|--------------------------|RIFF VII
|--------------------------|
|--------------------------|
|----4-5-4------0---0-5-4--|
|--2------2---1---2--------|
|0----------3--------------|


RIFF I 	4 times
RIFF II	4 times
RIFF I	4 times
RIFF II	4 times
RIFF III	4 times
RIFF IV 	4 times
RIFF III	4 times
RIFF IV	4 times
RIFF V	4 times
RIFF VI 	4 times
RIFF VII	4 times
Related for Spektrale Schattenlicher tab
×
Best way to learn
"Spektrale Schattenlicher"