Guitaretab - guitar tabs
Song name
# A B C D E F G H I J K L M N O P Q R S T U V W X Y Z

Abingdon Boys School - Innocent Sorrow tab

Tabbed by: Stig
I found one tab for this song and that one sucked, so I decided to try to make a better tab.
For corrections pleas email me at: 101189@live.no


Keep in mind that this tab is arranged for one guitar even tough there are two guitars 
in the song.

Tuning: Drop-D half step down (C# B# C# A# C D#)

intro:

D#|------------------------|
C |------------------------|
A#|----4--7----------------|
C#|----4--7--5--2--4--0----|  X2
B#|----2--5--5--2--4--0----|
C#|----------5--2--4--0----|

Verse:

D#|--------------------------------------------|
C |--------------------------------------------|
A#|--------------------------------------------|
C#|----9-9---9-9---9-9\------5-5---5-5---5-----|  X2
B#|----9-9---9-9---9-9\------5-5---5-5---5-----|
C#|----9-9---9-9---9-9\------5-5---5-5---5-----|

          saketa mune no   kizuguchi ni
          afure nagareru   PAIN In the dark


D#|---------x-x-x-x-------x-x-x-x-----------------x-x-x-x-------x-x-x-x--------|
C |---------x-x-x-x-------x-x-x-x-----------------x-x-x-x-------x-x-x-x--------|
A#|---------x-x-x-x-------x-x-x-x-----------------x-x-x-x-------x-x-x-x--------|
C#|----9-9--x-x-x-x--9-9--x-x-x-x--9-9\------5-5--x-x-x-x--5-5--x-x-x-x---5----|X2
B#|----9-9--x-x-x-x--9-9--x-x-x-x--9-9\------5-5--x-x-x-x--5-5--x-x-x-x---5----|
C#|----9-9--x-x-x-x--9-9--x-x-x-x--9-9\------5-5--x-x-x-x--5-5--x-x-x-x---5----|


           kasane            aeta                shunkan          no
           tsunagaru          omoi               tokashite


Bridge:

D#|------------------------------------------------------|
C |------------------------------------------------------|
A#|------------------------------------------------------|
C#|----7-------5------------7----2---9--7--9--7----------|
B#|----7-------5------------7----2---9--7--9--7----------|
C#|----7-------5------------7----2---9--7--9--7----------|

       samenai netsu  ni      unasarete

D#|------------------------------------x-x--x-x--x-x--x-x----|
C |------------------------------------x-x--x-x--x-x--x-x----|
A#|-----------------------5------------x-x--x-x--x-x--x-x----|
C#|----4---------5--------5--5--7--4---x-x--x-x--x-x--x-x----|
B#|----4---------5--------3--5--7--4---x-x--x-x--x-x--x-x----|
C#|----4---------5-----------5--7--4---x-x--x-x--x-x--x-x----|

       saigo no koe mo    kikoenai


Chorus:

D#|----------------------------------------------------------------------------|
C |----------------------------------------------------------------------------|
A#|-----------------------7------------------------------------4--------7------|
C#|----5------------------7--------------------4---------------4----7---7------|
B#|----5------------------5--------------------4---------------2----4---5------|
C#|----5---------------------------------------4-------------------------------|


Don't cry kowaresou na hodo dakishimetara kimi ga furuete ita           Oh

D#|---------------------------------------------------------|
C |---------------------------------------------------------|
A#|------------------------4----7---------------------------|
C#|----5-------------------4----7----------5-5-5-5-5--5--5--|
B#|----5-------------------2----5----------5-5-5-5-5--5--5--|
C#|----5-----------------------------------5-5-5-5-5--5--5--|

    sotto kazasu tenohira ni    furete misete

D#|-----------------------------------------|
C |-------------------------------------3---|
A#|-------------------------------------2---|
C#|----7-7-7-7-7--7--7------------------0---|
B#|----7-7-7-7-7--7--7------------------0---|
C#|----7-7-7-7-7--7--7------------------0---|

                      Never Until the end


Verse 2: Same as verse 1

Bridge 2: Same as bridge 1

Chorus 2: This is slightly different from chorus 1

D#|----------------------------------------------------------------------------|
C |----------------------------------------------------------------------------|
A#|-----------------------7------------------------------------4----6---7------|
C#|----5------------------7--------------------4---------------4----6---7------|
B#|----5------------------5--------------------4---------------2----4---5------|
C#|----5---------------------------------------4-------------------------------|


Don't cry kowaresou na hodo dakishimetara kimi ga furuete ita           Oh

D#|---------------------------------------------------------|
C |---------------------------------------------------------|
A#|------------------------4----7---------------------------|
C#|----5-------------------4----7----------5-5-5-5-5--5--5--|
B#|----5-------------------2----5----------5-5-5-5-5--5--5--|
C#|----5-----------------------------------5-5-5-5-5--5--5--|

    sotto kazasu tenohira ni    furete misete

D#|-------------------------------------------------------------------|
C |-------------------------------------------------------------------|
A#|-------------------------------------------------------------------|
C#|----7-7-7-7-7--7--7-------------5-5-5-5-5--5--5----7--9------12----|
B#|----7-7-7-7-7--7--7-------------5-5-5-5-5--5--5----7--9--12--12----|
C#|----7-7-7-7-7--7--7-------------5-5-5-5-5--5--5----7--9--11--12----|

                        Never Until the end

Solo:

Rythm Guitar:

D#|--------------------------------------------|
C |--------------------------------------------|
A#|----10--10-10--6--6-6---9--9-9---7--7-7-----|
C#|----10--10-10--6--6-6---9--9-9---7--7-7-----|
B#|----9---9--9---4--4-4---7--7-7---5--5-5-----|
C#|--------------------------------------------|

D#|--------------------------------------------|
C |--------------------------------------------|
A#|----10--10-10--6--6-6---7--7-7---7--7-7-----|
C#|----10--10-10--6--6-6---7--7-7---7--7-7-----|
B#|----9---9--9---4--4-4---5--5-5---5--5-5-----|
C#|--------------------------------------------|

D#|--------------------------------------------|
C |--------------------------------------------|
A#|----10--10-10--6--6-6---9--9-9---7--7-7-----|
C#|----10--10-10--6--6-6---9--9-9---7--7-7-----|
B#|----9---9--9---4--4-4---7--7-7---5--5-5-----|
C#|--------------------------------------------|
[ Tab from: http://www.guitaretab.com/a/abingdon-boys-school/108977.html ]
D#|--------------------------------------------|
C |--------------------------------------------|
A#|----10--10-10--6--6-6---7--7-7---7--7-7-----|
C#|----10--10-10--6--6-6---7--7-7---7--7-7-----|
B#|----9---9--9---4--4-4---5--5-5---5--5-5-----|
C#|--------------------------------------------|

Lead Guitar:

D#|---------------------------------------------------------------------|
C |---------------------------------------------------------------------|
A#|----/11-x--11-11-11\6--x--6--6--6/9--x--9--9--9\7--x--7--7--7\-------|
C#|--------x--------------x-------------x-------------x-----------------|
B#|----/9--x---9--9--9\4--x--4--4--4/7--x--7--7--7\5--x--5--5--5\-------|
C#|---------------------------------------------------------------------|


D#|----------------------------------------------17-----------------|
C |--------------15-14---10--10-10---17--17-15--------2--3-3--------|
A#|-----11--11------------------------------------------------------|
C#|-----------------------------------------------------------------|
B#|-----------------------------------------------------------------|
C#|-----------------------------------------------------------------|


Lead Guitar With Wah:

D#|-----------------------|      |------------------------|
C |---3--2----------------|      |------------------------|
A#|---------4--2----------|  x5  |--3--2----4--2-4-0------|
C#|---------------4--2----|      |------------------------|
B#|-----------------------|      |------------------------|
C#|-----------------------|      |------------------------|

D#|----------------------------------|
C |----------10-7-----10-7-----------|
A#|--7-9b11-------9-7------9-7-------|
C#|----------------------------9-7---|
B#|----------------------------------|
C#|----------------------------------|

D#|---------------------------------|
C |---------10-7-----10-7-----------|
A#|---9b11-------9-7------9-7-------|
C#|---------------------------9-7---|
B#|---------------------------------|
C#|---------------------------------|

D#|----------------------------------------|
C |--------------10-7---------------7-10---|
A#|----------9-7------9-7------9b11--------|
C#|-----------------------9-7--------------|
B#|----------------------------------------|
C#|----------------------------------------|

D#|--7-9-10-9-7-------7------------------------10---|
C |-------------10b12---10b12----10-7----------10---|
A#|-----------------------------------9-7------9b11-|
C#|---------------------------------------9-7-------|
B#|-------------------------------------------------|
C#|-------------------------------------------------|


Solo end:

D#|------------------------------------------------------------------------|
C |------------------------------------------------------------------------|
A#|------------------------------------------------------------------------|
C#|--10-10----10--9--9--7-7-----2--2-2--5-5-5-5-5-5-5-5-5-5-5-5-5-5-5-5----|
B#|--10-10----10--9--9--7-7-----2--2-2--5-5-5-5-5-5-5-5-5-5-5-5-5-5-5-5----|
C#|--10-10----10--9--9--7-7-----2--2-2--5-5-5-5-5-5-5-5-5-5-5-5-5-5-5-5----|

    kizamu inochi no tsubasa de umarekawaru toki

D#|---------------------|
C |---------------------|
A#|---------------------|
C#|---2-----------7-----|
B#|---2-----------7-----|
C#|---2-----------7-----|

    o machikogare te

Chorus 3:

D#|----------------------------------------------------------------------------|
C |----------------------------------------------------------------------------|
A#|-----------------------7------------------------------------4--------7------|
C#|----5------------------7--------------------4---------------4----7---7------|
B#|----5------------------5--------------------4---------------2----4---5------|
C#|----5---------------------------------------4-------------------------------|


Don't cry kowaresou na hodo dakishimetara kimi ga furuete ita           Oh

D#|------------------------------------------------------------------|
C |------------------------------------------------------------------|
A#|------------------------4----7---------------7---7-----7-----7-7--|
C#|----5-------------------4----7-----------------------5------------|
B#|----5-------------------2----5------------------------------------|
C#|----5-----------------------------------5-5----5---5-----5-5------|

    sotto kazasu tenohira ni    furete misete

D#|----------------------------------------------------------------------------|
C |----------------------------------------------------------------------------|
A#|-----------------------7------------------------------------4--------7------|
C#|----5------------------7--------------------4---------------4----7---7------|
B#|----5------------------5--------------------4---------------2----4---5------|
C#|----5---------------------------------------4-------------------------------|

      kitto sagashi te i ta n da iroase nai kimi toiu na no kiseki

D#|---------------------------------------------------------|
C |---------------------------------------------------------|
A#|------------------------4----7---------------------------|
C#|----5-------------------4----7----------5-5-5-5-5--5--5--|
B#|----5-------------------2----5----------5-5-5-5-5--5--5--|
C#|----5-----------------------------------5-5-5-5-5--5--5--|

     motto tsuyoku tenohira de boku ni fure te

D#|---------------------------------------------------------------------------|
C |---------------------------------------------------------------------------|
A#|---------------------------------------------------------------------------|
C#---7-7-7-7-7--7--7----5-5-5-5-5--5--5---7-7-7-7-7-7-7-7-7-7-7-7-7-7-7-7--2--|
B#|--7-7-7-7-7--7--7----5-5-5-5-5--5--5---7-7-7-7-7-7-7-7-7-7-7-7-7-7-7-7--2--|
C#|--7-7-7-7-7--7--7----5-5-5-5-5--5--5---7-7-7-7-7-7-7-7-7-7-7-7-7-7-7-7--2--|

                                                           ever and never end


Outro:

D#|--------------------------------------------|
C |--------------------------------------------|
A#|---4--4----7--7-----------------------------|
C#|---4--4----7--7----7----2--2---4--4---0--0--|  X2
B#|---2--2----5--5----7----2--2---4--4---0--0--|
C#|-------------------7----2--2---4--4---0--0--|

D#|------------------------------|
C |------------------------------|
A#|---4--4-----4--4--------------|  Repeat until the song fades out
C#|---4--4-----4--4--------------|
B#|---2--2-----2--2--------------|
C#|------------------------------|


http://www.youtube.com/watch?v=YCVzSoJn6I4
Related for Innocent Sorrow tab
Advertisement will be closed in 10 seconds