Song name
# A B C D E F G H I J K L M N O P Q R S T U V W X Y Z

Abingdon Boys School - Desert Rose tab

Tabbed by: Stig

For corrections/errors please email me at: 101189@live.no

Tuning: Drop D (D A D G B E)

Intro

E|------------------------------------------------------------------|
B|------------------------------------------------------------------|
G|------4---5-----2---4---------------------------------------------|  x4
D|--2-2---2---2-2-----------5---7-------4---5-----2-0-----5-4-2-0---|
A|------------------3---3-3---3---3-0-0---0---0-0-------------------|
D|----------------------------------------------------0-0-----------|


E|----------------|
B|-5--5--5--------|
G|-2--2--2--------|
D|-0--0--0--------|
A|----------------|
D|----------------|

Bridge
 
E|------------------------------------------|
B|------------------------------------------|
G|-4--2--5---4--4--4------------------------| x2
D|-2--2--2---2--2--2-----4--2--5---4--2-----|
A|-----------------------5--5--0---0--0-----|
D|------------------------------------------|


Verse

E|------------------------------------------------------------------|
B|------------------------------------------------------------------|
G|------4---5-----2---4---------------------------------------------|  x4
D|--2-2---2---2-2-----------5---7-------4---5-----2-0-----5-4-2-0---|
A|------------------3---3-3---3---3-0-0---0---0-0-------------------|
D|----------------------------------------------------0-0-----------|


E|-----------------------------------------|
B|-----------------------------------------|
G|-------2---4------2---4------2---4-------|
D|-----------------------------------------|
A|--3--3---3---3--3---3---3--3---3----3----|
D|-----------------------------------------|

E|-----------------------------------------|
B|-----------------------------------------|
G|-------2---4------2---4-------4--2--0----|
D|--0--0---0---0--0---0---0--0-----------4-|
A|-----------------------------------------|
D|-----------------------------------------|

E|-----------------------------------------|
B|-----------------------------------------|
G|-------2---4------2---4------2---4-------|
D|-----------------------------------------|
A|--3--3---3---3--3---3---3--3---3----3----|
D|-----------------------------------------|

E|-----------------------------------------|
B|-----------------------------------------|
G|-------2---4------2---4-------2---4------|
D|--0--0---0---0--0---0---0--0----0----0---|
A|-----------------------------------------|
D|-----------------------------------------|


E|----------------|
B|-5--5--5--------|
G|-2--2--2--------|
D|-0--0--0--------|
A|----------------|
D|----------------|

Refrain
 
E|-------------------------------------------|
B|-------------------------------------------|
G|-------------------------------------------|
D|--5-4-5-4-5-4--7-5-7-5-7-5--4-2-4-2-4-2----|
A|--2-2-2-2-2-2--5-5-5-5-5-5--0-0-0-0-0-0----|
D|--2-2-2-2-2-2--5-5-5-5-5-5--0-0-0-0-0-0----|
    

E|-----------------------------------------------|
B|-------------------------------12-12-12-12-----|
G|-------------------------------11-11-11-11-----|
D|----7--7-7---9-9-9-9--9--9-9---9--9--9--9------|
A|----7--7-7---7-7-7-7--9--9-9---9--9--9--9------|
D|----7--7-7---7-7-7-7--9--9-9---9--9--9--9------|


E|-------------------------------------------|
B|-------------------------------------------|
G|-------------------------------------------|
D|--5-4-5-4-5-4--7-5-7-5-7-5--4-2-4-2-4-2----|
A|--2-2-2-2-2-2--5-5-5-5-5-5--0-0-0-0-0-0----|
D|--2-2-2-2-2-2--5-5-5-5-5-5--0-0-0-0-0-0----|


E|-------------------------------------------------|
B|-------------------------------12-12-12-12--13---|
G|-------------------------------11-11-11-11--12---|
D|----7--7-7---9-9-9-9--9--9-9---9--9--9--9---10---|
A|----7--7-7---7-7-7-7--9--9-9---9--9--9--9---10---|
D|----7--7-7---7-7-7-7--9--9-9---9--9--9--9---10---|

verse

E|------------------------------------------------------------------|
B|------------------------------------------------------------------|
G|------4---5-----2---4---------------------------------------------|  x4
D|--2-2---2---2-2-----------5---7-------4---5-----2-0-----5-4-2-0---|
A|------------------3---3-3---3---3-0-0---0---0-0-------------------|
D|----------------------------------------------------0-0-----------|


E|-----------------------------------------|
B|-----------------------------------------|
G|-------2---4------2---4------2---4-------|
D|-----------------------------------------|
A|--3--3---3---3--3---3---3--3---3----3----|
D|-----------------------------------------|

E|-----------------------------------------|
B|-----------------------------------------|
G|-------2---4------2---4-------4--2--0----|
D|--0--0---0---0--0---0---0--0-----------4-|
A|-----------------------------------------|
D|-----------------------------------------|

E|-----------------------------------------|
B|-----------------------------------------|
G|-------2---4------2---4------2---4-------|
D|-----------------------------------------|
A|--3--3---3---3--3---3---3--3---3----3----|
D|-----------------------------------------|

E|-----------------------------------------|
B|-----------------------------------------|
G|-------2---4------2---4-------2---4------|
D|--0--0---0---0--0---0---0--0----0----0---|
A|-----------------------------------------|
D|-----------------------------------------|

Refrain

E|-------------------------------------------|
B|-------------------------------------------|
G|-------------------------------------------|
D|--5-4-5-4-5-4--7-5-7-5-7-5--4-2-4-2-4-2----|
A|--2-2-2-2-2-2--5-5-5-5-5-5--0-0-0-0-0-0----|
D|--2-2-2-2-2-2--5-5-5-5-5-5--0-0-0-0-0-0----|
    

E|-----------------------------------------------|
B|-------------------------------12-12-12-12-----|
G|-------------------------------11-11-11-11-----|
D|----7--7-7---9-9-9-9--9--9-9---9--9--9--9------|
A|----7--7-7---7-7-7-7--9--9-9---9--9--9--9------|
D|----7--7-7---7-7-7-7--9--9-9---9--9--9--9------|


E|-------------------------------------------|
B|-------------------------------------------|
G|-------------------------------------------|
D|--5-4-5-4-5-4--7-5-7-5-7-5--4-2-4-2-4-2----|
A|--2-2-2-2-2-2--5-5-5-5-5-5--0-0-0-0-0-0----|
D|--2-2-2-2-2-2--5-5-5-5-5-5--0-0-0-0-0-0----|


E|-------------------------------------------------------------------------------------|
B|-------------------------------12-12-12-12--13-13-13-13-13-13---15-15-15-15-15-15----|
G|-------------------------------11-11-11-11--12-12-12-12-12-12---14-14-14-14-14-14----|
D|----7--7-7---9-9-9-9--9--9-9---9--9--9--9---10-10-10-10-10-10---12-12-12-12-12-12----|
A|----7--7-7---7-7-7-7--9--9-9---9--9--9--9---10-10-10-10-10-10---12-12-12-12-12-12----|
D|----7--7-7---7-7-7-7--9--9-9---9--9--9--9---10-10-10-10-10-10---12-12-12-12-12-12----|


E|----------------|
B|----------------|
G|---10----12-----|
D|---10----12-----|
A|---10----12-----|
D|---10----12-----|


Solo

/ - Slide
p - pull off
h - hammer on
b - bend
r - release bend
~ - vibrato
t - tap

E|----------------------------------------------------------------------------------|
B|--15/17--12--15~---15/17--12--15~-----------------15/17--12--15~------------------|
G|-----------------------------------11b12r11~----------------------14--16--14--12--|
D|----------------------------------------------------------------------------------|
A|----------------------------------------------------------------------------------|
D|----------------------------------------------------------------------------------|


E|-----------------------------------------------------------------------------|
B|-----------------------------------------------------------------------------|
G|----------------------------------------------------------------12-h14-t19---|
D|--16--14--12-------------------------------t17-p12-h14-t19-p16---------------|
A|--------------15--14--12---10-h12-t17-p12------------------------------------|
D|-----------------------------------------------------------------------------|


E|---------------------------------19---|
B|--12-h15-t17b19r-p15---15--17-19------|
G|--------------------------------------|
D|--------------------------------------|
A|--------------------------------------|
D|--------------------------------------|


Rythm during solo

E|------------------------------------------|
B|------------------------------------------|
G|-4--2--5---4--4--4------------------------| x4
D|-2--2--2---2--2--2-----4--2--5---4--2-----|
A|-----------------------5--5--0---0--0-----|
D|------------------------------------------|



E|-------------|
B|-------------|
G|---5--7------|
D|---5--7------|
A|---3--5------|
D|-------------|


Refrein
 
E|-------------------------------------------|
B|-------------------------------------------|
G|-------------------------------------------|
D|--5-4-5-4-5-4--7-5-7-5-7-5--4-2-4-2-4-2----|
A|--2-2-2-2-2-2--5-5-5-5-5-5--0-0-0-0-0-0----|
D|--2-2-2-2-2-2--5-5-5-5-5-5--0-0-0-0-0-0----|
    

E|-----------------------------------------------|
B|-------------------------------12-12-12-12-----|
G|-------------------------------11-11-11-11-----|
D|----7--7-7---9-9-9-9--9--9-9---9--9--9--9------|
A|----7--7-7---7-7-7-7--9--9-9---9--9--9--9------|
D|----7--7-7---7-7-7-7--9--9-9---9--9--9--9------|

 
E|-------------------------------------------|
B|-------------------------------------------|
G|-------------------------------------------|
D|--5-4-5-4-5-4--7-5-7-5-7-5--4-2-4-2-4-2----|
A|--2-2-2-2-2-2--5-5-5-5-5-5--0-0-0-0-0-0----|
D|--2-2-2-2-2-2--5-5-5-5-5-5--0-0-0-0-0-0----|
    

E|-----------------------------------------------|
B|-------------------------------12-12-12-12-----|
G|-------------------------------11-11-11-11-----|
D|----7--7-7---9-9-9-9--9--9-9---9--9--9--9------|
A|----7--7-7---7-7-7-7--9--9-9---9--9--9--9------|
D|----7--7-7---7-7-7-7--9--9-9---9--9--9--9------|

E|-------------------------------------------|
B|-------------------------------------------|
G|-------------------------------------------|
D|--5-4-5-4-5-4--7-5-7-5-7-5--4-2-4-2-4-2----|
A|--2-2-2-2-2-2--5-5-5-5-5-5--0-0-0-0-0-0----|
D|--2-2-2-2-2-2--5-5-5-5-5-5--0-0-0-0-0-0----|
    

E|-----------------------------------------------|
B|-------------------------------12-12-12-12-----|
G|-------------------------------11-11-11-11-----|
D|----7--7-7---9-9-9-9--9--9-9---9--9--9--9------|
A|----7--7-7---7-7-7-7--9--9-9---9--9--9--9------|
D|----7--7-7---7-7-7-7--9--9-9---9--9--9--9------|


E|-------------------------------------------|
B|-------------------------------------------|
G|-------------------------------------------|
D|--5-4-5-4-5-4--7-5-7-5-7-5--4-2-4-2-4-2----|
A|--2-2-2-2-2-2--5-5-5-5-5-5--0-0-0-0-0-0----|
D|--2-2-2-2-2-2--5-5-5-5-5-5--0-0-0-0-0-0----|


E|-------------------------------------------------------------------------------------|
B|-------------------------------12-12-12-12--13-13-13-13-13-13---15-15-15-15-15-15----|
G|-------------------------------11-11-11-11--12-12-12-12-12-12---14-14-14-14-14-14----|
D|----7--7-7---9-9-9-9--9--9-9---9--9--9--9---10-10-10-10-10-10---12-12-12-12-12-12----|
A|----7--7-7---7-7-7-7--9--9-9---9--9--9--9---10-10-10-10-10-10---12-12-12-12-12-12----|
D|----7--7-7---7-7-7-7--9--9-9---9--9--9--9---10-10-10-10-10-10---12-12-12-12-12-12----|

E|-------------------------------------------|
B|-------------------------------------------|
G|-------------------------------------------|
D|--5-4-5-4-5-4--7-5-7-5-7-5--4-2-4-2-4-2----|
A|--2-2-2-2-2-2--5-5-5-5-5-5--0-0-0-0-0-0----|
D|--2-2-2-2-2-2--5-5-5-5-5-5--0-0-0-0-0-0----|
    

E|-----------------------------------------------|
B|-------------------------------12-12-12-12-----|
G|-------------------------------11-11-11-11-----|
D|----7--7-7---9-9-9-9--9--9-9---9--9--9--9------|
A|----7--7-7---7-7-7-7--9--9-9---9--9--9--9------|
D|----7--7-7---7-7-7-7--9--9-9---9--9--9--9------|


Outro

E|--------------------------------------|
B|--------------------------------------|
G|------4---5-----2---4-----0---2-------|  x4
D|--2-2---2---2-2---2---2-2---2---2-----|
A|--------------------------------------|
D|--------------------------------------|



Tap to rate this tab
 
# A B C D E F G H I J K L M N O P Q R S T U V W X Y Z