Song name
# A B C D E F G H I J K L M N O P Q R S T U V W X Y Z

Abingdon Boys School - Shiosai tab

Starting from 2:12

Right Guitar part:

E|-------------------|----------------------------------------|----|
B|-------8--7--------|------------------------------------7-8-|-7--|
G|--9---------9-7----|--------------------------------7-9-----|----|
D|----------------10-|-9-7---------------7--9-7-9-10----------|----|
A|-------------------|-----10-9--10-9-10----------------------|----|
D|-------------------|----------------------------------------|----|

E|-----------------|-----------------------7----------------|-----------|--------7----|
B|-----------------|---------------7-8--10---10-8--7--------|------8----|--10---------|
G|-----------------|-----------7-9-------------------9-7----|-----------|-------------|
D|--------7------7-|-9-7-9-10----------------------------10-|-9---------|-------------|
A|--9-10----9-10---|----------------------------------------|-----------|-------------|
D|-----------------|----------------------------------------|-----------|-------------|

E|---------------------7-------------7-8--|--7--------7---10-7--------7-----------|-------|
B|--7----------7-8-10--------7--8-10------|----8-7-8----8-------8-7-8----8-7-8-7--|-------|
G|--------7--9-----------7-9--------------|---------------------------------------|--9----|
D|----7-9---------------------------------|---------------------------------------|-------|
A|----------------------------------------|---------------------------------------|-------|
D|----------------------------------------|---------------------------------------|-------|

E|---------------|-----------------------------------------|--------10----|----------------|
B|--8--7---------|------------------------------------7-8--|--10----------|--7~------7-----|
G|-------9-7-----|--------------------------------7-9------|--------------|-------9-----7--|
D|-----------10--|--9-7--------------7--9-7-9-10-----------|--------------|----------------|
A|---------------|------10-9--7-9-10-----------------------|--------------|----------------|
D|---------------|-----------------------------------------|--------------|----------------|

E|-----------------------------------7-|-8---------7-8-10--12--|-/14----12--------------|
B|-------8---------8-10---------8-10---|------8-10-------------|------------------------|
G|--9-10------9-10---------9-10--------|-----------------------|--------------14-14/16--|
D|-------------------------------------|-----------------------|------------------------|
A|-------------------------------------|-----------------------|------------------------|
D|-------------------------------------|-----------------------|------------------------|
Tap to rate this tab
 
# A B C D E F G H I J K L M N O P Q R S T U V W X Y Z