Abingdon Boys School - Strength tab

-------------------------------------------------------------------------------
			     STRENGTH - Abingdon Boys School
-------------------------------------------------------------------------------

Tabbed by: Stig/GuitarDude

For corrections/errors please email me at: 101189@live.no

Tuning: Drop D (D A D G B E)



e|---------------------------------------------------------------------------|
B|--------------------------------------------------------------13-----------|
G|------------------------------5/7--5-5~-------------10-h12b14--------------|
D|---/7~-----3-3--2--5-3--7--5-----------------10h12-------------------------|
A|-------5~-------------------------------/12--------------------------------|
D|---------------------------------------------------------------------------|


e|---------------------------------------------------------------10-13-12-10-|
B|----13-----13-----13------------------------------------10--13-------------|
G|----12b14--12b14--12b14---12-10--9b10br9-------9-10--12--------------------|
D|-----------------------------------------10-12-----------------------------|
A|---------------------------------------------------------------------------|
E|---------------------------------------------------------------------------|


e|-----------10-----------10-12----10----------------------------------------|
B|-10-13b15~----10--13b15-------13----10-10-------13-----13-13---------------|
G|------------------------------------------12b14---12b14---12b14br12-p10-12~|
D|---------------------------------------------------------------------------|
A|---------------------------------------------------------------------------|
D|---------------------------------------------------------------------------|


e|---------/17--15-17-/22-22-17\15/17\15--12b13br12--10----------------------|
B|-----13-----------------------------------------------10--13b15~-----------|
G|--14-----------------------------------------------------------------------|
D|---------------------------------------------------------------------------|
A|---------------------------------------------------------------------------|
D|---------------------------------------------------------------------------|


e|---------------------------------------------------------------------------|
B|-----12--12--12---15+------------------------------------------------------|
G|-----12--12--12------------------------------------------------------------|
D|---------------------------------------------------------------------------|
A|---------------------------------------------------------------------------|
D|---------------------------------------------------------------------------|

    + = Artificial harmonic. * Make it so it becomes an A note when picked

************************************

| /   slide up
| \   slide down
| h   hammer-on
| p   pull-off
| ~   vibrato
| +   harmonic
| x   Mute note
| b   Bend
| pb  Pre-bend
| br  Bend release
| pbr Pre-bend release
| brb Bend release bend

************************************
Tap to rate this tab
 
# A B C D E F G H I J K L M N O P Q R S T U V W X Y Z