Song name
# A B C D E F G H I J K L M N O P Q R S T U V W X Y Z

Aborted - Inertia tab

                                     INERTIA
                       As recorded by The Partisan Turbine
                     (From the 2006 Album SURGICAL ASSAULT)

Words by Matt Lippl

Music by The Partisan Turbine
Transcribed by Patsyxcore

Gtr I (A E A D Gb B) - 'Left'
Gtr II (A E A D Gb B) - 'Right'
Gtr III (A E A D Gb B) - 'Center'
Gtr IV (A E A D Gb B) - 'Center'

 "Archaic..."
  Q=201
 4/4
  Gtrs I, II
  S S S S S S S S S S S S S S S S   S S S S S S S S S S S S S S S S
|---------------------------------|----------------------------------|
|---------------------------------|----------------------------------|
|---------------------------------|----------------------------------|
|---------------------------------|----------------------------------|
|---------------------------------|----------------------------------|
|-5-5-5-5-2-2-2-2-6-6-6-6-3-3-3-3-|-5-5-5-5-2-2-2-2-6-6-6-6-3-3-3-3--|


                "Disorder, where..."
  Wx2            S S S S S S S S S S S S S S S S
|------------||----------------------------------|
|------------||o---------------------------------|
|------------||----------------------------------|
|------------||----------------------------------|
|------------||o---------------------------------|
|------------||--5-5-5-5-2-2-2-2-6-6-6-6-3-3-3-3-|


  S S S S S S S S S S S S S S S S
|------------------------------------||
|-----------------------------------o||
|------------------------------------||
|------------------------------------||
|-----------------------------------o||
|-5-5-5-5-2-2-2-2-6-6-6-6-3-3-3-3----||


    Q=161
    S S S S S S S S S S S S S S S S   S S S S S S S S S S S S S S S S
||----------------------------------|-----------------------------------||
||o---------------------------------|----------------------------------o||
||----------------------------------|-----------------------------------||
||--5-5-5-5-2-2-2-2-6-6-6-6-3-3-6-6-|-5-5-5-5-2-2-2-2-6-6-6-6-3-3-6-6---||
||o---------------------------------|----------------------------------o||
||----------------------------------|-----------------------------------||


    E S S E S S E S S E E   E S S E S S E S S E E
||------------------------|------------------------||
||o-----------------------|-----------------------o||
||------------------------|------------------------||
||------------------------|------------------------||
||o-5-5-5-2-2-2-6-6-6-3-6-|-5-5-5-2-2-2-6-6-6-3-6-o||
||--5-5-5-2-2-2-6-6-6-3-6-|-5-5-5-2-2-2-6-6-6-3-6--||


  Gtr I
  S S S S S S S S S S S S S S S S   S S S S S S S S S S S S S S S S
|---------------------------------|---------------------------------|
|---------------------------------|---------------------------------|
|---------------------------------|---------------------------------|
|-4-4-4-4-4-4-4-4-4-4-4-4-4-4-4-4-|-----------------5-5-5-5-5-5-5-5-|
|---------------------------------|-6-6-6-6-6-6-6-6-----------------|
|---------------------------------|---------------------------------|
|
| Gtr II
| S S S S S S S S S S S S S S S S   S S S S S S S S S S S S S S S S
|---------------------------------|---------------------------------|
|---------------------------------|---------------------------------|
|---------------------------------|---------------------------------|
|-4-4-4-4-4-4-4-4-4-4-4-4-4-4-4-4-|-----------------5-5-5-5-5-5-5-5-|
|---------------------------------|-6-6-6-6-6-6-6-6-----------------|
|---------------------------------|---------------------------------|


  S S S S S S S S S S S S S S S S
|---------------------------------|
|---------------------------------|
|---------------------------------|
|-9-9-9-9-9-9-9-9-9-9-9-9-9-9-9-9-|
|---------------------------------|
|---------------------------------|
|
| S S S S S S S S S S S S S S S S
|---------------------------------|
|---------------------------------|
|---------------------------------|
|-4-4-4-4-4-4-4-4-4-4-4-4-4-4-4-4-|
|---------------------------------|
|---------------------------------|


   S  S  S  S  S  S  S  S  S  S  S  S  S  S  S  S
|-------------------------------------------------|
|-------------------------------------------------|
|-------------------------------------------------|
|-------------------------10-10-10-10-10-10-10-10-|
|-10-10-10-10-10-10-10-10-------------------------|
|-------------------------------------------------|
|
|  S  S  S  S  S  S  S  S  S  S  S  S  S  S  S  S
|-------------------------------------------------|
|-------------------------------------------------|
|-------------------------------------------------|
|--------------------------5--5--5--5--5--5--5--5-|
|--6--6--6--6--6--6--6--6-------------------------|
|-------------------------------------------------|


    Gtrs I, II
    E S S E S S E S S E E   E S S E S S E S S E E
||------------------------|------------------------||
||o-----------------------|-----------------------o||
||------------------------|------------------------||
||------------------------|------------------------||
||o-5-5-5-2-2-2-6-6-6-3-6-|-5-5-5-2-2-2-6-6-6-3-6-o||
||--5-5-5-2-2-2-6-6-6-3-6-|-5-5-5-2-2-2-6-6-6-3-6--||


                "Narrow gauge, fall..."
                 Q=141
  Wx2            E. E. E E. E. E   E. E. E E. E.  E
|------------||------------------|---------------17/-|
|------------||o-----------------|-------------------|
|------------||------------------|-------------------|
|------------||------------------|-------------------|
|------------||o-0--0--0-0--0--0-|-0--0--0-0--0------|
|------------||--1--1--1-1--1--1-|-1--1--1-1--1------|


  E. E. E E. E. E   E. E. E E. E. E
|-----------------|-------------------||
|-----------------|------------------o||
|-----------------|-------------------||
|-----------------|-------------------||
|-0--0--0-0--0--0-|-4--3--2-3--2--4--o||
|-1--1--1-1--1--1-|-4--3--2-3--2--4---||


 Solo?
  Q=161
  Gtr I
                                <
  E S S Q  H      Wx2           W            +W
|---------------|------------|------------|----------|
|---------------|------------|------------|----------|
|---------------|------------|------------|----------|
|---------------|------------|-<5>--------|-(<5>)----|
|-0-0-0---------|------------|------------|----------|
|-0-0-0---------|------------|------------|----------|
|
| Gtr II
| W               Wx2           W             W
|---------------|------------|------------|----------|
|---------------|------------|------------|----------|
|---------------|------------|------------|----------|
|---------------|------------|------------|----------|
|---------------|------------|------------|----------|
|---------------|------------|------------|----------|


   S  S  S  S  S  S  S  S  S  S  S  S  S  S  S  S
|-------------------------------------------------|
|-------------------------------------------------|
|-------------------------------------------------|
|-13-16-13-16-12-15-12-15-13-16-13-16-12-15-12-15-|
|-------------------------------------------------|
|-------------------------------------------------|
|
|  W
|-------------------------------------------------|
|-------------------------------------------------|
|-------------------------------------------------|
|-------------------------------------------------|
|-------------------------------------------------|
|-------------------------------------------------|


   S  S  S  S  S  S  S  S  S  S  S  S  S  S  S  S
|-------------------------12-15-12-15-------------|
|-------------12-15-12-15-------------11-14-11-14-|
|-12-15-12-15-------------------------------------|
|-------------------------------------------------|
|-------------------------------------------------|
|-------------------------------------------------|
|
|  W
|-------------------------------------------------|
|-------------------------------------------------|
|-------------------------------------------------|
|-------------------------------------------------|
|-------------------------------------------------|
|-------------------------------------------------|


  S  S S  S S  S S  S S  S S  S S  S S  S
|-----------------------------------------|
|-----------------------------------------|
|-9-12-9-12-----------9-12-9-12-----------|
|-----------8-11-8-11-----------8-11-8-11-|
|-----------------------------------------|
|-----------------------------------------|
|
| W
|-----------------------------------------|
|-----------------------------------------|
|-----------------------------------------|
|-----------------------------------------|
|-----------------------------------------|
|-----------------------------------------|


  S  S S  S S S S S S S S S S S S S   S S S S Q  +H
|-----------------------------------|-------------------||
|-----------------------------------|-------------------||
|-----------------------------------|-------------------||
|-7-10-7-10-7-7-7-7-7-7-7-7-7-7-7-7-|-7-7-7-7-7--(7)----||
|-----------5-5-5-5-5-5-5-5-5-5-5-5-|-5-5-5-5-5--(5)----||
|-----------7-7-7-7-7-7-7-7-7-7-7-7-|-7-7-7-7-7--(7)----||
|
| W                                   W
|-----------------------------------|-------------------||
|-----------------------------------|-------------------||
|-----------------------------------|-------------------||
|-----------------------------------|-------------------||
|-----------------------------------|-------------------||
|-----------------------------------|-------------------||


 Talking part
  Q=141
  +W             S S Q  S S Q  S S E   +E  S S Q  S S E S S E  4x
|------------||----------------------|-------------------------||
|------------||o---------------------|------------------------o||
|------------||----------------------|-------------------------||
|-(7)--------||----------------------|-------------------------||
|-(5)--------||o-5-5-5--5-5-5--5-5-5-|-(5)-5-5-5--5-5-5-5-5-5-o||
|-(7)--------||--7-7-7--7-7-7--7-7-7-|-(7)-7-7-7--7-7-7-7-7-7--||
|
|  W             S S Q  S S Q  S S E   +E  S S Q  S S E S S E  4x
|------------||----------------------|-------------------------||
|------------||o---------------------|------------------------o||
|------------||----------------------|-------------------------||
|------------||----------------------|-------------------------||
|------------||o-5-5-5--5-5-5--5-5-5-|-(5)-5-5-5--5-5-5-5-5-5-o||
|------------||--7-7-7--7-7-7--7-7-7-|-(7)-7-7-7--7-7-7-7-7-7--||


                "Disease, bastard king..."
                 Q=131
                                                                 2/4
                 Gtr III
  Wx2            S S Q  S S Q  S S E   +E  S S Q  S S E S S E  4x +E  E Q
|------------||----------------------|-------------------------||---------||
|------------||o---------------------|------------------------o||---------||
|------------||----------------------|-------------------------||---------||
|------------||----------------------|-------------------------||---------||
|------------||o-0-0-0--0-0-0--0-0-0-|-(0)-0-0-0--0-0-0-0-0-0-o||-(0)-----||
|------------||--0-0-0--0-0-0--0-0-0-|-(0)-0-0-0--0-0-0-0-0-0--||-(0)-----||
|
|                Gtr IV
| Wx2            S S Q  S S Q  S S E   +E  S S Q  S S E S S E  4x +E  E Q
|------------||----------------------|-------------------------||---------||
|------------||o---------------------|------------------------o||---------||
|------------||----------------------|-------------------------||---------||
|------------||----------------------|-------------------------||---------||
|------------||o-0-0-0--0-0-0--0-0-0-|-(0)-0-0-0--0-0-0-0-0-0-o||-(0)-----||
|------------||--0-0-0--0-0-0--0-0-0-|-(0)-0-0-0--0-0-0-0-0-0--||-(0)-----||


   "Torn, separate the..."
   4/4
    S S Q  T T T T Q  T T T T E   +E  T T T T Q  S S E S S E  4x Wx2
||------------------------------|-----------------------------||--------*|
||o-----------------------------|----------------------------o||--------*|
||------------------------------|-----------------------------||--------*|
||------------------------------|-----------------------------||--------*|
||o-0-0-0--0-0-0-0-0--0-0-0-0-0-|-(0)-0-0-0-0-0--0-0-0-0-0-0-o||--------*|
||--1-1-1--1-1-1-1-1--1-1-1-1-1-|-(1)-1-1-1-1-1--1-1-1-1-1-1--||--------*|
|
|   S S Q  T T T T Q  T T T T E   +E  T T T T Q  S S E S S E  4x Wx2
||------------------------------|-----------------------------||--------*|
||o-----------------------------|----------------------------o||--------*|
||------------------------------|-----------------------------||--------*|
||------------------------------|-----------------------------||--------*|
||o-0-0-0--0-0-0-0-0--0-0-0-0-0-|-(0)-0-0-0-0-0--0-0-0-0-0-0-o||--------*|
||--1-1-1--1-1-1-1-1--1-1-1-1-1-|-(1)-1-1-1-1-1--1-1-1-1-1-1--||--------*|


Duration Legend
---------------
W - whole; H - half; Q - quarter; E - 8th; S - 16th; T - 32nd; X - 64th; a - acciaccatura
+ - note tied to previous; . - note dotted; .. - note double dotted
Uncapitalized letters represent notes that are staccato (1/2 duration)
Irregular groupings are notated above the duration line
Duration letters will always appear directly above the note/fret number it represents the
duration for.  Duration letters with no fret number below them represent rests.  Multi-
bar rests are notated in the form Wxn, where n is the number of bars to rest for.  Low
melody durations appear below the staff

Tablature Legend
----------------
 h   - hammer-on
 p   - pull-off
 b   - bend
 pb  - pre-bend
 r   - bend release (if no number after the r, then release immediately)
 /\  - slide into or out of (from/to "nowhere")
 s   - legato slide
 S   - shift slide
  - natural harmonic
[n]  - artificial harmonic
n(n) - tapped harmonic
 ~   - vibrato
 tr  - trill
 T   - tap
 TP  - trem. picking
 PM  - palm muting
\n/  - tremolo bar dip; n = amount to dip
 \n  - tremolo bar down
 n/  - tremolo bar up
/n\  - tremolo bar inverted dip
 =   - hold bend; also acts as connecting device for hammers/pulls
 <>  - volume swell (louder/softer)
 x   - on rhythm slash represents muted slash
 o   - on rhythm slash represents single note slash

Misc Legend
-----------
 |  - bar
||  - double bar
||o - repeat start
o|| - repeat end
*|  - double bar (ending)
 :  - bar (freetime)
 $  - Segno
 &  - Coda
Tempo markers -  = BPM(8/16=s8/s16), where s8 = swing 8ths, s16 = swing 16th
Tap to rate this tab
 
# A B C D E F G H I J K L M N O P Q R S T U V W X Y Z