Song name
# A B C D E F G H I J K L M N O P Q R S T U V W X Y Z

About A Plane Crash - We Operate The Deceased tab

About a Plane Crash - We Operate Deceased
tab by - Chris Carvy 
tuning - drop D

e|---------------------------------------------------} \
B|---------------------------------------------------}  \
G|---------------------------------------------------}   \
D|----0--0-0--0--0-0-0-2-0--0-0-0--0-----------------}    \
A|----0--0-0--0--0-0-0---0--0-0-0--0-----------------}     \
D|----0--0-0--0--0-0-0---0--0-0-0--0-----------------}      \
PM|------*-*-----*-*-*-----*-*-*---------------------)       \
                                                             |x2
e|------12---11---10---9-----------------------------}      /
B|---10----9----8----7-------------------------------}     /
G|---------------------------------------------------}    /
D|---------------------------------------------------}   / 
A|---------------------------------------------------}  /
D|---------------------------------------------------} /
PM|x

Band site : http://www.myspace.com/aboutaplanecrash
Tap to rate this tab
# A B C D E F G H I J K L M N O P Q R S T U V W X Y Z