Song name
# A B C D E F G H I J K L M N O P Q R S T U V W X Y Z

Above And Beyond - Good For Me Acoustic chords

Highlighted       Show chord diagrams
Really enjoy their Acoustic album and really enjoy this son so here's the tab!
A little help from Chordify: http://chordify.net/chords/above-beyond-feat-zoe-
johnston-good-for-me-acoustic-above-beyond

Capo 1

Strumming pattern is D U D U D U D U throughout the entire song

Intro Tab (Relative to Capo) [x8]
      D
e|---------------------------------------------------------------|
B|---------3--------------3---------3----------------------------|
G|--------------2--------------2---------------------------------|
D|----0--------------0-------------------------------------------|
A|---------------------------------------------------------------|
E|---------------------------------------------------------------|

C, G, D, D [x2]

C     G           D
To be with you is easy
C     G           D
I know you're good for me
Em    G           D
This feeling inside me
C     G           D
Oh it sends me sky high

C     G           D
To for feel for you is easy oh baby
C     G           D
I know your good for me
Em    G           D
This feeling inside me
C     G           D
Oh it sends me sky high

C     G           D
You're good for me my baby
C     G           D
So good for me my love
Em    G           D
You're good for me my baby
C     G           D
So good for me oh love

(Single strums each)
C, G, D, D [x2]

C     G           D
To for feel for you is easy oh baby
C     G           D
I know your good for me
Em    G           D
This feeling inside me
C     G           D
Oh it sends me sky high

C     G           D
You're good for me my baby
C     G           D
So good for me my love
Em    G           D
You're good for me my baby
C     G           D
So good for me oh love

C, G, D, D [x2]

(Play this tab over the next 4 lines)

      G                   D
e|-------------------3------------------2------------------------|
B|--------------0------------------3-----------------------------|
G|---------0-------------------2---------------------------------|
D|----0-------------------0--------------------------------------|
A|---------------------------------------------------------------|
E|---------------------------------------------------------------|

You're good for me my baby
So good for me my love
You're good for me my baby
So good for me oh love

C     G           D
You're good for me my baby
C     G           D
So good for me my love
Em    G           D
You're good for me my baby
C     G           D
So good for me oh love

C, G, D, D [x16]
Tap to rate this tab
# A B C D E F G H I J K L M N O P Q R S T U V W X Y Z