Song name
# A B C D E F G H I J K L M N O P Q R S T U V W X Y Z

Above And Beyond - Love Is Not Enough Acoustic chords

Highlighted       Show chord diagrams
The acoustic version of this song from A&B's Acoustic album is absolutely 
beautiful and I just had to tab it, so here it is!
Had a little help from Chordify:
http://chordify.net/chords/above-beyond-feat-zoe-johnston-love-is-not-enough-
acoustic-above-beyond-1392668045

Capo 1

The intro tab can be played throughout the song,I just like the sound of strumming more!

Intro Tab (Relative To Capo) [x4]

      Dm                  Dm                  G
e|-------------------1-------------------1-------------------1---|
B|--------------3-------------------3-------------------0--------|
G|---------2-------------------2-------------------0-------------|
D|----0-------------------0-------------------0------------------|
A|---------------------------------------------------------------|
E|---------------------------------------------------------------|

      G
e|-------------------1-------------------------------------------|
B|--------------0------------------------------------------------|
G|---------0-----------------------------------------------------|
D|----0----------------------------------------------------------|
A|---------------------------------------------------------------|
E|---------------------------------------------------------------|

Dm                G
I've had too many a 
Dm                G
Good cry for you
Dm                G
This is my time to say
Dm                G
Goodbye to you

Dm                G
In my heart of hearts
Dm                G
I know there's more love left for you
Dm                G
But love is not enough, I've learned,
Dm                G
To see the journey through

Dm                G
This is not yours alone
Dm                G
It hurts me too
Dm                G
Please don't say you don't care
Dm                G
I know you do

Dm                G
In my heart of hearts
Dm                G
I know there's more love left for you
Dm                G
But love is not enough, I've learned,
Dm                G
To see the journey through

[Intro Tab x2]

Dm
Love is not enough for me
Em
If it screams when you hold it
F
Love is not enough for me
G
Love is hurting if it 
Dm               Em
Screams
F                G
Oh if it's screaming out loud

Dm               Em
I'll be screaming for love
F                G
Love is not enough

Dm, G [x4]

Dm                G
In my heart of hearts
Dm                G
I know there's more love left for you
Dm                G
But love is not enough, I've learned,
Dm                G
To see the journey through

[Intro Tab x2]
Tap to rate this tab
# A B C D E F G H I J K L M N O P Q R S T U V W X Y Z