Song name
# A B C D E F G H I J K L M N O P Q R S T U V W X Y Z

Above And Beyond - Sun And Moon Acoustic chords

Highlighted       Show chord diagrams
Above & Beyond is an amazing band already, so when they released their Acoustic 
album I was thrilled.
As of now, there are few tabs for Above & Beyond, let alone none for their 
acoustic album, leading me to tab this.
This is my first tab so rate and enjoy!
A little help with the chords from Chordify: http://chordify.net/chords/above-
beyond-feat-alex-vargas-sun-moon-acoustic-above-beyond

Contact me:
https://www.facebook.com/pages/Noah-Mead/1443812192514007
https://twitter.com/NoahMeadMusic
https://soundcloud.com/noah-mead

Capo on 2nd Fret

Plucking Tab (Relative to Capo)
          Em                                                  Em
e|-------------------------------------------------------------------|
B|-------------------------------------------------------------------|
G|-----------------------------0-----------------------------0-------|
D|------------------------2-----------------------------2------------|
A|---------2---------2-------------------2---------2-----------------|
E|----0---------0-------------------0---------0----------------------|

          Am                                                    C
e|-------------------------------------------------------------------|
B|------------------------------1-----------------------------1------|
G|-------------------------2-----------------------------0-----------|
D|----------2---------2-------------------2---------2----------------|
A|----0----------0-------------------3---------3---------------------|
E|-------------------------------------------------------------------|


Intro: Em, Em, Am, C [x2]

Em
t's raining, it's pouring
Em
A black sky is falling
Am                  C
It's cold tonight

Em
You gave me your answer
Em
Goodbye Now I'm all on my own
Am                  C
Tonight

Em
And when the big wheel starts to spin
Em
You can never know the odds
Am                  C
If you don't play you'll never win

Em
We were in heaven you and I
Em
When I lay with you and close my eyes
Am                  C
Our fingers touch the sky


[Chorus x2]
G
I'm sorry baby
G
You were the sun and moon to me
Em                            C
I'll never get over you, you'll never get over me

G, G, Em, C [x2]

(Lyrics done by ear at this point)

Em
You held back and lost out
Em
You gave in, you reached out
Am                           C
And walked away

Em
A final embrace
Em
You won’t touch, I won’t chase
Am                           C
Nothing more to say

Em
And when the big wheel starts to spin
Em
You can never know the odds
Am                           C
If you don't play you'll never win

Em
We were in heaven you and I
Em
When I lay with you and close my eyes
Am                           C
Our fingers touch the sky


[Chorus x2]
G
I'm sorry baby
G
You were the sun and moon to me
Em                            C
I'll never get over you, you'll never get over me

G, G, Em, C

G [x4]
Tap to rate this tab
# A B C D E F G H I J K L M N O P Q R S T U V W X Y Z