Above The Golden State - Ill Love You So tab

-----------------------------------------------------------------------------
                          I'LL LOVE YOU SO        ABOVE THE GOLDEN STATE
-----------------------------------------------------------------------------

Tabbed by:hurricaneherman

Electric Guitar 1:Standard Tuning
Electric Guitar 2:Standard Tuning
Acoustic Guitar 1:Standard Tuning

I just listened to this song for the first time today, and it caught my ear.
I wanted to play it but there was no tab, so naturally I tabbed it.
I hope this helps the next person who wants to play it.

~INTRO~

 |electric 1|
e|0---x-2-2---x-0---0-x-0---0-0-0-3---3-x-x-5-5-5-3---3-x-x-2-2-2-|
B|0---x-3-3---x-1---1-x-1---1-1-1-0---0-x-x-3-3-3-0---0-x-x-3-3-3-|
G|0---x-4-4---x-0---0-x-3---3-3-3-0---0-x-x-2-2-2-0---0-x-x-4-4-4-|
D|2---x-4-4---x-2---2-x-2---2-2-2-0---0-x-x-0-0-0-0---0-x-x-4-4-4-|X[2]
A|2---x-2-2---x-3---3-x-3---3-3-3-2---2-----------2---2-----2-2-2-|
E|0-------------------------------3---3-----------3---3-----------|

~VERSE 1~
 |electric 1|  
      bar             bar
e|0---(0)--(0)----3---(3)--(3)----2-2-x-2-2-2-x-x-0-0-x-0-0-0-x-x-|
B|1---(1)--(1)----0---(0)--(0)----3-3-x-3-3-3-x-x-0-0-x-0-0-0-x-x-|
G|0---(0)--(0)----0---(0)--(0)----2-2-x-2-2-2-x-x-0-0-x-0-0-0-x-x-|
D|2---(2)--(2)----0---(0)--(0)----0-0-x-0-0-0-x-x-2-2-x-2-2-2-x-x-|
A|3---(3)--(3)----2---(2)--(2)--------------------2-2-x-2-2-2-x-x-|
E|-------\/-------3---(3)\/(3)--------------------0-0-x-0-0-0-x-x-|
         -1             -1/2
   I feel the sun it's returned again to chase the cold far a way
 |electric 1|
e|0-0-x-0-0-0-x-x-3-3-x-3-3-3-x-x-2-2-x-2-2-2-x-x-0-0-x-0-0-------|
B|1-1-x-1-1-1-x-x-0-0-x-0-0-0-x-x-3-3-x-3-3-3-x-x-0-0-x-0-0-------|
G|0-0-x-0-0-0-x-x-0-0-x-0-0-0-x-x-4-4-x-4-4-4-x-x-0-0-x-0-0-------|
D|2-2-x-2-2-2-x-x-0-0-x-0-0-0-x-x-4-4-x-4-4-4-x-x-2-2-x-2-2-5-4-5-|
A|3-3-x-3-3-3-x-x-2-2-x-2-2-2-x-x-2-2-x-2-2-2-x-x-2-2-x-2-2-5-4-5-|
E|----------------3-3-x-3-3-3-x-x-----------------0-0-x-0-0-3-2-3-|
I'm not alone to fight the world I'm in you gave me hope for better days

~PRE-CHORUS 1~

 |electric 1|
e|---------------------------------------------------------------|
B|---------------------------------------------------------------|
G|---------------------------------------------------------------|
D|7-7------7-5-7-5-5-------5-4-5-7-7-------7-5-7-9-9-9-9-9-9-9-9-|
A|7-7------7-5-7-5-5-------5-4-5-7-7-------7-5-7-9-9-9-9-9-9-9-9-|
E|5-5------5-3-5-3-3-------3-2-3-5-5-------5-3-5-7-7-7-7-7-7-7-7-|
I was searching for a friend like no other I never thought you'd come my way

~CHORUS 1~

 |electric 1|
e|0---x-2-2---x-0---0-x-0---0-0-0-3---3-x-x-5-5-5-3---3-x-x-2-2-2-|
B|0---x-3-3---x-1---1-x-1---1-1-1-0---0-x-x-3-3-3-0---0-x-x-3-3-3-|
G|0---x-4-4---x-0---0-x-3---3-3-3-0---0-x-x-2-2-2-0---0-x-x-4-4-4-|
D|2---x-4-4---x-2---2-x-2---2-2-2-0---0-x-x-0-0-0-0---0-x-x-4-4-4-|X[2]
A|2---x-2-2---x-3---3-x-3---3-3-3-2---2-----------2---2-----2-2-2-|
E|0-------------------------------3---3-----------3---3-----------|
 |electric 2|                                                     |
e|------------------------------------7---------------7-----------|
B|--------------------------------------8-10B-r-8-------8-10B-r---|
G|----------------------------------------------------------------|
D|----------------------------------------------------------------|X[2]
A|----------------------------------------------------------------|
E|----------------------------------------------------------------|
           Everything I give to you I'll love you so
            Everything I say or do I'll love you so

~VERSE 2~

 |electric 1|
e|0-0-x-0-0-0-x-x-3-3-x-3-3-3-x-x-2-2-x-2-2-2-x-x-0-0-x-0-0-0-x-x-|
B|1-1-x-1-1-1-x-x-0-0-x-0-0-0-x-x-3-3-x-3-3-3-x-x-0-0-x-0-0-0-x-x-|
G|0-0-x-0-0-0-x-x-0-0-x-0-0-0-x-x-2-2-x-2-2-2-x-x-0-0-x-0-0-0-x-x-|
D|2-2-x-2-2-2-x-x-0-0-x-0-0-0-x-x-0-0-x-0-0-0-x-x-2-2-x-2-2-2-x-x-|
A|3-3-x-3-3-3-x-x-2-2-x-2-2-2-x-x-----x-------x-x-2-2-x-2-2-2-x-x-|
E|----------------3-3-x-3-3-3-x-x-----------------0-0-x-0-0-0-x-x-|
          Look where we've come how could I ever forget
                before your love my heart was dead
 |electric 1|
e|0-0-x-0-0-0-x-x-3-3-x-3-3-3-x-x-2-2-x-2-2-2-x-x-0-0-x-0-0-------|
B|1-1-x-1-1-1-x-x-0-0-x-0-0-0-x-x-3-3-x-3-3-3-x-x-0-0-x-0-0-------|
G|0-0-x-0-0-0-x-x-0-0-x-0-0-0-x-x-4-4-x-4-4-4-x-x-0-0-x-0-0-------|
D|2-2-x-2-2-2-x-x-0-0-x-0-0-0-x-x-4-4-x-4-4-4-x-x-2-2-x-2-2-5-4-5-|
A|3-3-x-3-3-3-x-x-2-2-x-2-2-2-x-x-2-2-x-2-2-2-x-x-2-2-x-2-2-5-4-5-|
E|----------------3-3-x-3-3-3-x-x-----------------0-0-x-0-0-3-2-3-|
I was afraid that my sun would set but you stayed around to lift my head

~PRE-CHORUS 2~

Repeat pre chorus 1 with these lyrics

I was living my whole life undercover,
Never dreamed I'd see your face,

~CHORUS 2~

Repeat chorus 1

~BRIDGE 1~

 |electric 1|
e|0-0-x-0-0-0-x-x-0-0-x-0-0-0-x-x-2-2-x-2-2-2-x-x-3-3-x-3-3-3-2-2-|
B|0-0-x-0-0-0-x-x-1-1-x-1-1-1-x-x-3-3-x-3-3-3-x-x-0-0-x-0-0-0-3-3-|
G|0-0-x-0-0-0-x-x-0-0-x-0-0-0-x-x-2-2-x-2-2-2-x-x-0-0-x-0-0-0-4-4-|
D|2-2-x-2-2-2-x-x-2-2-x-2-2-2-x-x-0-0-x-0-0-0-x-x-0-0-x-0-0-0-4-4-|X[2]
A|2-2-x-2-2-2-x-x-3-3-x-3-3-3-x-x-----------------2-2-x-2-2-2-2-2-|
E|0-0-x-0-0-0-------------------------------------3-3-x-3-3-3-----|
                     Ooh I'll love you so
 |acoustic 1|
e|--------5/7-8---7-5-5h7-------2h3p2-----------------------------|
B|------------------------------------------3/5\3-------1p0-------|
G|----------------------------------------------------------2p0---|
D|----------------------------------------------------------------|
A|----------------------------------------------------------------|
E|----------------------------------------------------------------|

 |electric 1|
e|------------------2---2h3---5-5h7-----7-7h8-5-8-7-10-12-14-15---|
B|3h5-------5---3-----------4-------7-----------------------------|
G|----------------------------------------------------------------|
D|----------------------------------------------------------------|
A|----------------------------------------------------------------|
E|----------------------------------------------------------------|
 |acoustic 1|                                                     |
e|--8---------------3---------------7-------------0-0-0-0-2-2-2-2-|
B|-5--------5------3--------3------8--------8-----1-1-1-1-3-3-3-3-|
G|5-----------5---4-----------4---9-----------9---0-0-0-0-4-4-4-4-|
D|------------------------------------------------2-2-2-2-4-4-4-4-|
A|------------------------------------------------3-3-3-3-2-2-2-2-|
E|----------------------------------------------------------------|

~Chorus 3~

Repeat chorus 1

~BRIDGE 2~

 |electric 1|
e|0-0-x-0-0-0-x-x-0-0-x-0-0-0-x-x-2-2-x-2-2-2-x-x-3-3-x-3-3-3-2-2-|
B|0-0-x-0-0-0-x-x-1-1-x-1-1-1-x-x-3-3-x-3-3-3-x-x-0-0-x-0-0-0-3-3-|
G|0-0-x-0-0-0-x-x-0-0-x-0-0-0-x-x-2-2-x-2-2-2-x-x-0-0-x-0-0-0-4-4-|
D|2-2-x-2-2-2-x-x-2-2-x-2-2-2-x-x-0-0-x-0-0-0-x-x-0-0-x-0-0-0-4-4-|X[2]
A|2-2-x-2-2-2-x-x-3-3-x-3-3-3-x-x-----------------2-2-x-2-2-2-2-2-|
E|0-0-x-0-0-0-------------------------------------3-3-x-3-3-3-----|
                       Ooh I'll love you so
~CHORUS 4~

Repeat chorus 1 with these lyrics

Ooh I feel the sun, I'll love you so
Ooh I feel the sun, whoa whoa whoa

~OUTRO~

 |electric 1|
e|3---3-x-x-2-2-2-3---------------|
B|0---0-x-x-3-3-3-0---------------|
G|0---0-x-x-4-4-4-0---------------|
D|0---0-x-x-4-4-4-0---------------|
A|2---2-x-x-2-2-2-2---------------|
E|3---3-----------3---------------|
 |electric 2|                     |
e|------7-------------------------|
B|--------8-10B-r-\3~-------------|
G|--------------------------------|
D|--------------------------------|
A|--------------------------------|
E|--------------------------------|

=============================================================================
bar + -1 = whole bar dive and return
bar + -1/2 = half bar dive and return
h = hammer on
p = pull off
/ = slide up
\ = slide down
B = whole bend
r = release bend
~ = vibrato

I hope you enjoy this tab, and that it was easy to follow. Also if you did
enjoy this tab, I would appreciate it if you rate it. Thanks.

Peace, Love, I'm out.
Tap to rate this tab
 
# A B C D E F G H I J K L M N O P Q R S T U V W X Y Z