Song name
# A B C D E F G H I J K L M N O P Q R S T U V W X Y Z

Above The Law - Photograph Of What Was tab

Help us improve GuitareTab! Take a short survey!
@-------------------------------PLEASE NOTE-------------------------------@
@ This is the authors own work and interpretations of the song@@.---------@
@you may only use this tab for scholarship, reasearch or private study.---@
@-------------------------------------------------------------------------@

Photograph of what was
Above The Law
Tabbed by: Trevor Miles
E-mail: guitartrevor25@yahoo.com

INTRO
GUITAR 1-
e:|------------------------------------------------------|
B:|------------------------------------------------------|
G:|--------0-------------0-------------------------------|
D:|----9-9--9---x-x-7-7---7---x-x-5-55-55--7-77-77-------|
A:|----9-9---9--x-x-7-7----7--x-x-5-55-55--7-77-77-------|
E:|----7-7------x-x-5-5-------x-x-3-33-33--5-55-55-------|

e:|------------------------------------------------------|
B:|------------------------------------------------------|
G:|--------0-------------0-------------------------------|
D:|----9-9--9---x-x-7-7---7---x-x-5-55-55--7-77-77-7-----|
A:|----9-9---9--x-x-7-7----7--x-x-5-55-55--7-77-77-7-----|
E:|----7-7------x-x-5-5-------x-x-3-33-33--5-55-55-5-----|

GUITAR 2-
e:|-------------------------------------------------------|
B:|-------------------------------------------------------|
G:|-------------------------------------------------------|
D:|---9-9----7-7----5-5----7-7----9-9----7-7----5-5----7-7|
A:|---9-9----7-7----5-5----7-7----9-9----7-7----5-5----7-7|
E:|---7-7----5-5----3-3----5-5----7-7----5-5----3-3----5-5|

VERSE 1
GUITAR 1 AND 2
e:|-------------------------------------------------------|
B:|-------------------------------------------------------|
G:|-------------------------------------------------------|
D:|---99999999---77777777---55555555---77777777777--------|   X3
A:|---99999999---77777777---55555555---77777777777--------|
E:|---77777777---55555555---33333333---55555555555--------|


CHORUS
GUITAR 1-
e:|------------------------------------------------------|
B:|------------------------------------------------------|
G:|--------0-------------0-------------------------------|
D:|----9-9--9---x-x-7-7---7---x-x-5-55-55--7-77-77-------|
A:|----9-9---9--x-x-7-7----7--x-x-5-55-55--7-77-77-------|
E:|----7-7------x-x-5-5-------x-x-3-33-33--5-55-55-------|

e:|------------------------------------------------------|
B:|------------------------------------------------------|
G:|--------0-------------0-------------------------------|
D:|----9-9--9---x-x-7-7---7---x-x-5-55-55--7-77-77-7-----|
A:|----9-9---9--x-x-7-7----7--x-x-5-55-55--7-77-77-7-----|
E:|----7-7------x-x-5-5-------x-x-3-33-33--5-55-55-5-----|

e:|----------------------------------------------------|
B:|----------------------------------------------------|
G:|----------------------------------------------------|
D:|---9-99-99---7-77-77---5-55-55---7-77-77------------|
A:|---9-99-99---7-77-77---5-55-55---7-77-77------------|
E:|---7-77-77---5-55-55---3-33-33---5-55-55------------|

e:|----------------------------------------------------|
B:|----------------------------------------------------|
G:|------0--0-----------0--0---------------------------|
D:|--9-9------9-x-x-7-7------7--x-x-5-55-55--7-77-77-7-|
A:|--9-9--------x-x-7-7---------x-x-5-55-55--7-77-77-7-|
E:|--7-7--------x-x-5-5---------x-x-3-33-33--5-55-55-5-|

e:|-------------------------------------------------------------------------
B:|-------------------------------------------------------------------------
G:|----------------------------------0--0-------------0--0------------------
D:|---9-99-99--5-55-55--7-77-77--9-9------9---x-x-7-7------7-5-55-55-7-77-77
A:|---9-99-99--5-55-55--7-77-77--9-9----------x-x-7-7--------5-55-55-7-77-77
E:|---7-77-77--3-33-33--5-55-55--7-7----------x-x-5-5--------3-33-33-5-55-55


GUITAR 2-
e:|-------------------------------------------------------|
B:|-------------------------------------------------------|
G:|-------------------------------------------------------|
D:|---9-9----7-7----5-5----7-7----9-9----7-7----5-5----7-7|  X4
A:|---9-9----7-7----5-5----7-7----9-9----7-7----5-5----7-7|
E:|---7-7----5-5----3-3----5-5----7-7----5-5----3-3----5-5|

VERSE 2-
GUITAR 1 AND 2
e:|-------------------------------------------------------|
B:|-------------------------------------------------------|
G:|-------------------------------------------------------|
D:|---99999999---77777777---55555555---77777777777--------|   X4
A:|---99999999---77777777---55555555---77777777777--------|
E:|---77777777---55555555---33333333---55555555555--------|

CHORUS
GUITAR 1-
e:|------------------------------------------------------|
B:|------------------------------------------------------|
G:|--------0-------------0-------------------------------|
D:|----9-9--9---x-x-7-7---7---x-x-5-55-55--7-77-77-------|
A:|----9-9---9--x-x-7-7----7--x-x-5-55-55--7-77-77-------|
E:|----7-7------x-x-5-5-------x-x-3-33-33--5-55-55-------|

e:|------------------------------------------------------|
B:|------------------------------------------------------|
G:|--------0-------------0-------------------------------|
D:|----9-9--9---x-x-7-7---7---x-x-5-55-55--7-77-77-7-----|
A:|----9-9---9--x-x-7-7----7--x-x-5-55-55--7-77-77-7-----|
E:|----7-7------x-x-5-5-------x-x-3-33-33--5-55-55-5-----|

e:|----------------------------------------------------|
B:|----------------------------------------------------|
G:|----------------------------------------------------|
D:|---9-99-99---7-77-77---5-55-55---7-77-77------------|
A:|---9-99-99---7-77-77---5-55-55---7-77-77------------|
E:|---7-77-77---5-55-55---3-33-33---5-55-55------------|

e:|----------------------------------------------------|
B:|----------------------------------------------------|
G:|------0--0-----------0--0---------------------------|
D:|--9-9------9-x-x-7-7------7--x-x-5-55-55--7-77-77-7-|
A:|--9-9--------x-x-7-7---------x-x-5-55-55--7-77-77-7-|
E:|--7-7--------x-x-5-5---------x-x-3-33-33--5-55-55-5-|

e:|-------------------------------------------------------------------------
B:|-------------------------------------------------------------------------
G:|----------------------------------0--0-------------0--0------------------
D:|---9-99-99--5-55-55--7-77-77--9-9------9---x-x-7-7------7-5-55-55-7-77-77
A:|---9-99-99--5-55-55--7-77-77--9-9----------x-x-7-7--------5-55-55-7-77-77
E:|---7-77-77--3-33-33--5-55-55--7-7----------x-x-5-5--------3-33-33-5-55-55


GUITAR 2-
e:|-------------------------------------------------------|
B:|-------------------------------------------------------|
G:|-------------------------------------------------------|
D:|---9-9----7-7----5-5----7-7----9-9----7-7----5-5----7-7|  X4
A:|---9-9----7-7----5-5----7-7----9-9----7-7----5-5----7-7|
E:|---7-7----5-5----3-3----5-5----7-7----5-5----3-3----5-5|

VERSE 3-
GUITAR 1 AND 2
e:|-------------------------------------------------------|
B:|-------------------------------------------------------|
G:|-------------------------------------------------------|
D:|---99999999---77777777---55555555---77777777777--------|   X5
A:|---99999999---77777777---55555555---77777777777--------|
E:|---77777777---55555555---33333333---55555555555--------|

e:|-------------------------------------------------------|
B:|-------------------------------------------------------|
G:|-------------------------------------------------------|
D:|---9-9-------7-7-------5-55-55--7-77-77----------------|   X5
A:|---9-9-9p7---7-7--7p5--5-55-55--7-77-77----------------|
E:|---7-7-------5-5-------3-33-33--5-55-55----------------|

CHORUS
GUITAR 1-
e:|------------------------------------------------------|
B:|------------------------------------------------------|
G:|--------0-------------0-------------------------------|
D:|----9-9--9---x-x-7-7---7---x-x-5-55-55--7-77-77-------|
A:|----9-9---9--x-x-7-7----7--x-x-5-55-55--7-77-77-------|
E:|----7-7------x-x-5-5-------x-x-3-33-33--5-55-55-------|

e:|------------------------------------------------------|
B:|------------------------------------------------------|
G:|--------0-------------0-------------------------------|
D:|----9-9--9---x-x-7-7---7---x-x-5-55-55--7-77-77-7-----|
A:|----9-9---9--x-x-7-7----7--x-x-5-55-55--7-77-77-7-----|
E:|----7-7------x-x-5-5-------x-x-3-33-33--5-55-55-5-----|

e:|----------------------------------------------------|
B:|----------------------------------------------------|
G:|----------------------------------------------------|
D:|---9-99-99---7-77-77---5-55-55---7-77-77------------|
A:|---9-99-99---7-77-77---5-55-55---7-77-77------------|
E:|---7-77-77---5-55-55---3-33-33---5-55-55------------|

e:|----------------------------------------------------|
B:|----------------------------------------------------|
G:|------0--0-----------0--0---------------------------|
D:|--9-9------9-x-x-7-7------7--x-x-5-55-55--7-77-77-7-|
A:|--9-9--------x-x-7-7---------x-x-5-55-55--7-77-77-7-|
E:|--7-7--------x-x-5-5---------x-x-3-33-33--5-55-55-5-|

e:|-------------------------------------------------------------------------
B:|-------------------------------------------------------------------------
G:|----------------------------------0--0-------------0--0------------------
D:|---9-99-99--5-55-55--7-77-77--9-9------9---x-x-7-7------7-5-55-55-7-77-77
A:|---9-99-99--5-55-55--7-77-77--9-9----------x-x-7-7--------5-55-55-7-77-77
E:|---7-77-77--3-33-33--5-55-55--7-7----------x-x-5-5--------3-33-33-5-55-55


GUITAR 2-
e:|-------------------------------------------------------|
B:|-------------------------------------------------------|
G:|-------------------------------------------------------|
D:|---9-9----7-7----5-5----7-7----9-9----7-7----5-5----7-7|  X4
A:|---9-9----7-7----5-5----7-7----9-9----7-7----5-5----7-7|
E:|---7-7----5-5----3-3----5-5----7-7----5-5----3-3----5-5|

SO... PRETTY MUCH THE SAME THING OVER AND OVER AGAIN UNTIL YOU REACH VERSE 3





Related for Photograph Of What Was tab