Song name
# A B C D E F G H I J K L M N O P Q R S T U V W X Y Z

Above The Law - Finally Got It Right tab

|----------------------------PLEASE-NOTE-----------------------------------|
|---THIS IS THE AUTHORS OWN WORK AND INTERPRETATIONS OF THE SONG-----------|
|---AND IS LEGALLY COPYRIGHTED, YOU MAY ONLY USE THIS TAB FOR:-------------|
|---PRIVATE STUDY, RESEARCH AND SHOLARSHIP---------------------------------|

                            FINALLY GOT IT RIGHT
BY: ABOVE THE LAW
TABBED BY: TREVOR MILES
E-MAIL: guitartrevor25@yahoo.com
TUNING: STANDARD
X= LIFT FINGERS UP SLIGHTLY

INTRO:
GUITAR 1
e:|---------------------------------------------------------|
B:|---------------------------------------------------------|
G:|---------------------------------------------------------|
D:|-------2-0------3-2-----5-3------------------------------|  X4
A:|---3-3--------------------------5-3-2--------------------|
E:|-----------3-3------5-5-----3-3--------------------------|
VERSE 1
GUITAR 1-
e:|------------------------------------------------------------------|
B:|------------------------------------------------------------------|
G:|------------------------------------------------------------------|
D:|---2-2-x-x-x-x-x-x-----------------9-9-x-x-x-x-x-x----------------|
A:|---3-3-x-x-x-x-x-x-5-5-x-x-x-x-x-x-7-7-x-x-x-x-x-x-7-7-x-x-7-7-x-x|
E:|-------------------3-3-x-x-x-x-x-x-----------------5-5-x-x-5-5-x-x|

e:|------------------------------------------------------------------|
B:|------------------------------------------------------------------|
G:|------------------------------------------------------------------|
D:|---2-2-x-x-x-x-x-x-----------------9-9-x-x-x-x-x-x----------------|
A:|---3-3-x-x-x-x-x-x-5-5-x-x-x-x-x-x-7-7-x-x-x-x-x-x-7-7-7-7-7-7-7-7|
E:|-------------------3-3-x-x-x-x-x-x-----------------5-5-5-5-5-5-5-5|

e:|---------------------------------------------------------|
B:|---------------------------------------------------------|
G:|---------------------------------------------------------|
D:|-------2-0------3-2-----5-3------------------------------|  X2
A:|---3-3--------------------------5-3-2--------------------|
E:|-----------3-3------5-5-----3-3--------------------------|

e:|------------------------------------------------------------------|
B:|------------------------------------------------------------------|
G:|------------------------------------------------------------------|
D:|---2-2-x-x-x-x-x-x-----------------9-9-x-x-x-x-x-x----------------|
A:|---3-3-x-x-x-x-x-x-5-5-x-x-x-x-x-x-7-7-x-x-x-x-x-x-7-7-x-x-7-7-x-x|
E:|-------------------3-3-x-x-x-x-x-x-----------------5-5-x-x-5-5-x-x|

e:|------------------------------------------------------------------|
B:|------------------------------------------------------------------|
G:|------------------------------------------------------------------|
D:|---2-2-x-x-x-x-x-x-----------------9-9-x-x-x-x-x-x----------------|
A:|---3-3-x-x-x-x-x-x-5-5-x-x-x-x-x-x-7-7-x-x-x-x-x-x-7-7-7-7-7-7-7-7|
E:|-------------------3-3-x-x-x-x-x-x-----------------5-5-5-5-5-5-5-5|

GUITAR 2-
e:|------------------------------------------------------------------|
B:|------------------------------------------------------------------|
G:|------------------------------------------------------------------|
D:|---2-2----------------------------9-9-----------------------------|
A:|---3-3------------5-5-------------7-7---------------7-7----7-7----|
E:|------------------3-3-------------------------------5-5----5-5----|

e:|------------------------------------------------------------------|
B:|------------------------------------------------------------------|
G:|------------------------------------------------------------------|
D:|---2-2----------------------------9-9-----------------------------|
A:|---3-3------------5-5-------------7-7--------------7-7-7-7-7-7-7-7|
E:|------------------3-3------------------------------5-5-5-5-5-5-5-5|

CHORUS
GUITAR 1 AND 2
e:|------------------------------------------------------------------|
B:|------------------------------------------------------------------|
G:|------------------------------------------------------------------|
D:|---2-2-2-2-2-2-2-2-----------------9-9-9-9-9-9-9-9----------------| x3
A:|---3-3-3-3-3-3-3-3-5-5-5-5-5-5-5-5-7-7-7-7-7-7-7-7-5-5-x-x-5-5-x-x|
E:|-------------------3-3-3-3-3-3-3-3-----------------3-3-x-x-3-3-x-x|

e:|---------------------------------------------------------|
B:|---------------------------------------------------------|
G:|---------------------------------------------------------|
D:|-------2-0------3-2-----5-3------------------------------|  X2
A:|---3-3--------------------------5-3-2--------------------|
E:|-----------3-3------5-5-----3-3--------------------------|

VERSE 2
GUITAR 1-

e:|------------------------------------------------------------------|
B:|------------------------------------------------------------------|
G:|------------------------------------------------------------------|
D:|---2-2-x-x-x-x-x-x-----------------9-9-x-x-x-x-x-x----------------|
A:|---3-3-x-x-x-x-x-x-5-5-x-x-x-x-x-x-7-7-x-x-x-x-x-x-7-7-x-x-7-7-x-x|
E:|-------------------3-3-x-x-x-x-x-x-----------------5-5-x-x-5-5-x-x|

e:|------------------------------------------------------------------|
B:|------------------------------------------------------------------|
G:|------------------------------------------------------------------|
D:|---2-2-x-x-x-x-x-x-----------------9-9-x-x-x-x-x-x----------------|
A:|---3-3-x-x-x-x-x-x-5-5-x-x-x-x-x-x-7-7-x-x-x-x-x-x-7-7-7-7-7-7-7-7|
E:|-------------------3-3-x-x-x-x-x-x-----------------5-5-5-5-5-5-5-5| X6



GUITAR 2-
e:|------------------------------------------------------------------|
B:|------------------------------------------------------------------|
G:|------------------------------------------------------------------|
D:|---2-2----------------------------9-9-----------------------------|
A:|---3-3------------5-5-------------7-7---------------7-7----7-7----|
E:|------------------3-3-------------------------------5-5----5-5----|

e:|------------------------------------------------------------------|
B:|------------------------------------------------------------------|
G:|------------------------------------------------------------------|
D:|---2-2----------------------------9-9-----------------------------|
A:|---3-3------------5-5-------------7-7--------------7-7-7-7-7-7-7-7|
E:|------------------3-3------------------------------5-5-5-5-5-5-5-5| X6

CHORUS
GUITAR 1 AND 2
e:|------------------------------------------------------------------|
B:|------------------------------------------------------------------|
G:|------------------------------------------------------------------|
D:|---2-2-2-2-2-2-2-2-----------------9-9-9-9-9-9-9-9----------------| x3
A:|---3-3-3-3-3-3-3-3-5-5-5-5-5-5-5-5-7-7-7-7-7-7-7-7-5-5-x-x-5-5-x-x|
E:|-------------------3-3-3-3-3-3-3-3-----------------3-3-x-x-3-3-x-x|

e:|---------------------------------------------------------|
B:|---------------------------------------------------------|
G:|---------------------------------------------------------|
D:|-------2-0------3-2-----5-3------------------------------|  X4
A:|---3-3--------------------------5-3-2--------------------|
E:|-----------3-3------5-5-----3-3--------------------------|

VERSE 3
GUITAR 1 ONLY
e:|---------------------------------------------------------|
B:|---------------------------------------------------------|
G:|---------------------------------------------------------|
D:|---2-2-2-2-2----------2----------2-----------------------|
A:|---3-3-3-3----5-5-5-5----7-7-7-7---7-5-3-2---------------|
E:|--------------3-3-3-3----5-5-5-5-------------------------|

e:|------------------------------------------------------------|
B:|------------------------------------------------------------|
G:|------------------------------------------------------------|
D:|---2-2-2-2-2----------2----------2--------------------------|
A:|---3-3-3-3----5-5-5-5----7-7-7-7---77777777-55555-4444-3333-|
E:|--------------3-3-3-3----5-5-5-5----------------------------|


e:|---------------------------------------------------------|
B:|---------------------------------------------------------|
G:|---------------------------------------------------------|
D:|-------2-0------3-2-----5-3------------------------------|  X4
A:|---3-3--------------------------5-3-2--------------------|
E:|-----------3-3------5-5-----3-3--------------------------|

CHORUS
GUITAR 1 AND 2
e:|------------------------------------------------------------------|
B:|------------------------------------------------------------------|
G:|------------------------------------------------------------------|
D:|---2-2-2-2-2-2-2-2-----------------9-9-9-9-9-9-9-9----------------| x3
A:|---3-3-3-3-3-3-3-3-5-5-5-5-5-5-5-5-7-7-7-7-7-7-7-7-5-5-x-x-5-5-x-x|
E:|-------------------3-3-3-3-3-3-3-3-----------------3-3-x-x-3-3-x-x|

e:|---------------------------------------------------------|
B:|---------------------------------------------------------|
G:|---------------------------------------------------------|
D:|-------2-0------3-2-----5-3------------------------------|  X4
A:|---3-3--------------------------5-3-2--------------------|
E:|-----------3-3------5-5-----3-3--------------------------|
Tap to rate this tab
# A B C D E F G H I J K L M N O P Q R S T U V W X Y Z