Song name
# A B C D E F G H I J K L M N O P Q R S T U V W X Y Z

Abra - Diwata tab

Hi guys! this is my second tab! i mean,, the first was chords.. but this time, only 
intro! i repeat okay? INTRO of diwata!
enjoy! ^_^

Artist: Chito miranda ft. Abra
Song: Diwata
Tab by: Karren C. Rocamora


Tab
             C
e--0---------------3--------|
b---------3--1--------------|
g------0--------------------|
d---------------------------|
a--3---------------3--------|
E---------------------------|


           Am
e--0---------------3--------|
b---------3--1--------------|
g------2--------------------|
d---------------------------|
a--0---------------0--------|
E---------------------------|


            F
e--0---------------5--------|
b---------3--1--------------|
g------2--------------------|
d---------------------------|
a--3------------------------|
E---------------------------|

            G
(sa G, kung ano ano nalang i pluck nyo ^_^)


(repeat the C and Am)tabs


F, G, C...
^
!
strum: D D F D D D F D D
D-down
F- fick ( ibig-sabihin silent strum )

There you go! ^_^ hope u liked it!
Tap to rate this tab
# A B C D E F G H I J K L M N O P Q R S T U V W X Y Z