Song name
# A B C D E F G H I J K L M N O P Q R S T U V W X Y Z

Abrasive Wheels - 1982 tab

-------------------------------------------------------------------------------
1982 - Abrasive Wheels
-------------------------------------------------------------------------------
Tabbed by: axeslash
Email: holmzito@yahoo.com

Tuning: EADGBE (Standard)
Intro
e|---------------------------------|    
B|---------------------------------|    
G|---------------------------------|    
D|-6--8----6--8----6--8----6--8----|    
A|-6--8----6--8----6--8----6--8----|    
E|-4--6----4--6----4--6----4--6----|  

Verse
e|-------------------------|
B|-------------------------|
G|-------------------------|
D|-3--6--3-3-6--6-6-8--8-8-|
A|-1--4--1-1-4--6-6-8--8-8-|
E|--------------4-4-6--6-6-| x6

Chorus
e|-----------------------------------------------------------------|
B|-----------------------------------------------------------------|
G|-----------------------------------------------------------------|
D|-6-6-6-6-6-6-6-6-8-8-8-8-8-8-8-8-6/8--8-8--8-8-8-6-8--8-8--8-8-8-|
A|-4-4-4-4-4-4-4-4-6-6-6-6-6-6-6-6-6/8--8-8--8-8-8-6/8--8-8--8-8-8-|
E|---------------------------------4/6--6-6--6-6-6-4/6--6-6--6-6-6-| x2

e|------------------|
B|------------------|
G|------------------|
D|-6--6--6-5-6-6----|
A|-6--6--6-5-6-6----|
E|-4--4--4-3-4-4----|

Now Play The Following Pattern:

Verse
Chorus
Verse
Chorus
Verse
Chorus
Verse
Chorus

e|----------------------------------------------|    
B|----------------------------------------------|    
G|----------------------------------------------|    
D|-6----6--8----6--8----6--8----6--8----6--8----|    
A|-6----6--8----6--8----6--8----6--8----6--8----|    
E|-4----4--6----4--6----4--6----4--6----4--6----|  

Verse
Chorus
Verse

e|-------------------------------------------------------|
B|-------------------------------------------------------|
G|-------------------------------------------------------|
D|-3--6--3-3-6--6-6-8--8-8-3--6--3-3-6--6-6-8--------8\\-|
A|-1--4--1-1-4--6-6-8--8-8-1--4--1-1-4--6-6-8--------8\\-|
E|--------------4-4-6--6-6--------------4-4-6--------6\\-|

| /  slide up
| \  slide down
| h  hammer-on
| p  pull-off
| ~  vibrato
| +  harmonic
| x  Mute note
===============================================================================
Tap to rate this tab
# A B C D E F G H I J K L M N O P Q R S T U V W X Y Z