Song name
# A B C D E F G H I J K L M N O P Q R S T U V W X Y Z

Abscess - The Scent Of Shit tab

Abscess - The Scent of Shit
Tune 2 Whole steps down

VERSE RIFF 1x
C |-------------------------------------------------------------------------|
G |-------------------------------------------------------------------------|
Eb|-------------------------------------------------------------------------|
Bb|-------------------------------------------------------------------------|
F |---9999999988888888-9999999988888888-9999999988888888-9999999988888888---|
C |---7777777766666666-7777777766666666-7777777766666666-7777777766666666---|

CHORUS RIFF 2X
C |-------------------------------------------------------------------------|
G |-------------------------------------------------------------------------|
Eb|-------------------------------------------------------------------------|
Bb|---------------------------6-6-6-6----------------------------6-6-6-6----|
F |---555555555555-898-555555-4-4-4-4----555555555555-898-555555-4-4-4-4----|
C |---333333333333-676-333333------------333333333333-676-333333------------|

OUTRO
C |-------------------------------------------------------------------------|
G |-------------------------------------------------------------------------|
Eb|-------------------------------------------------------------------------|
Bb|-------------------------------------------------------------------------|
F |-----555555555555-3-4---555555555555-3-4---555555555555-3-4--------------|
C |-----333333333333-1-2---333333333333-1-2---333333333333-1-2--------------|


C |-------------------------------------------------------------------------|
G |-------------------------------------------------------------------------|
Eb|-------------------------------------------------------------------------|
Bb|-------------------------------------------------------------------------|
F |----55555555555--3-4-5---------------------------------------------------|
C |----33333333333--1-2-3---------------------------------------------------|
Tap to rate this tab
# A B C D E F G H I J K L M N O P Q R S T U V W X Y Z