Song name
# A B C D E F G H I J K L M N O P Q R S T U V W X Y Z

Abscond - Agay tab

Agay (soLo)
Tabbed by: Patrick John B.Visto
USJ-R

simple ra kai ne cya bai...

p- pound
s-slide

e|--------------------------------------------------|
B|--14-14-1414s12-10p12-----------------------------|
G|------------------------11-9-11-1111------9p11-9-9|
D|-------------------------------------9p11---------|
A|--------------------------------------------------|
E|--------------------------------------------------|


e|-----------------7p9s10-12s14s16-1717171717171717-|
B|------------9p10----------------------------------|
G|-------9p11---------------------------------------|
D|-11p12--------------------------------------------|
A|--------------------------------------------------|
E|--------------------------------------------------|


e|-1616161616161616-1717171717171717-17p19---------------------|
B|-----------------------------------------19-17-17p19---------|
G|--------------------------------------------------18-16-16p18|
D|-------------------------------------------------------------|
A|-------------------------------------------------------------|
E|-------------------------------------------------------------|


e|-------------------------------------------------------------|
B|-------------------------14-14s15-15s17----------------------|
G|-14----------14p16-14-14-------------------------------------|
D|----16-14p16-------------------------------------------------|
A|-------------------------------------------------------------|
E|-------------------------------------------------------------|

just add comments kung naay problema....

enjoy sakto kai nahh........
Tap to rate this tab
# A B C D E F G H I J K L M N O P Q R S T U V W X Y Z