Song name
# A B C D E F G H I J K L M N O P Q R S T U V W X Y Z

Absentee - Boy Did She Teach You Nothing tab

http://www.absenteemusic.co.uk/

Standard Tuning


Intro:


Guitar 1:

e|-------------------------------------|-------------------------------------|
B|-------------------------------------|-------------------------------------|
G|---------9---------------------------|---------9---------------------------|
D|----11-----11---11-----11-----11---11|----11-----11---11-----11-----11---11|
A|x-0----0------0----x-0----0-7----9---|x-0----0------0----x-0----0-7----9---|
E|-------------------------------------|-------------------------------------|

  1        2         3        4         1        2         3        4


e|---------------------------------------|-------------------------------------|
B|---------------------------------------|-------------------------------------|
G|---------------------------------------|---------9---------------------------|
D|----14---12-11---11-----14---12-11---11|----11-----11---11-----11-----11---11|
A|x-0----0-------0----x-0----0-------0---|x-0----0------0----x-0----0-7----9---|
E|---------------------------------------|-------------------------------------|

  1        2          3        4          1        2         3        4


Guitar 2:

e|5-5----------------5-5---------------|5-5----------------5-5---------------|
B|5-5----------------5-5---------------|5-5----------------5-5---------------|
G|6-6----------------6-6---------------|6-6----------------6-6---------------|
D|7-7----------------7-7---------------|7-7----------------7-7---------------|
A|7-7----------------7-7---------------|7-7----------------7-7---------------|
E|5-5----------------5-5---------------|5-5----------------5-5---------------|

  1        2         3        4         1        2         3        4


e|10-10--------------10-10-------------|5-5----------------5-5---------------|
B|10-10--------------10-10-------------|5-5----------------5-5---------------|
G|11-11--------------11-11-------------|6-6----------------6-6---------------|
D|12-12--------------12-12-------------|7-7----------------7-7---------------|
A|12-12--------------12-12-------------|7-7----------------7-7---------------|
E|10-10--------------10-10-------------|5-5----------------5-5---------------|

  1        2         3        4         1        2         3        4


Verse:


Guitar 1:

e|-------------------------------------|-------------------------------------|      --
B|-------------------------------------|-------------------------------------|        \  
G|---------9---------------------------|---------9---------------------------|         \  
D|----11-----11---11-----11-----11---11|----11-----11---11-----11-----11---11|          | 
A|x-0----0------0----x-0----0-7----9---|x-0----0------0----x-0----0-7----9---|          |
E|-------------------------------------|-------------------------------------|          |
                                                                                       /
  1        2         3        4         1        2         3        4                 / (x2)
                                                                                      \
                                                                                       \
e|---------------------------------------|-------------------------------------|        |
B|---------------------------------------|-------------------------------------|        |
G|---------------------------------------|---------9---------------------------|        |
D|----14---12-11---11-----14---12-11---11|----11-----11---11-----11-----11---11|       /
A|x-0----0-------0----x-0----0-------0---|x-0----0------0----x-0----0-7----9---|      /
E|---------------------------------------|-------------------------------------|    --

  1        2          3        4          1        2         3        4   


Guitar 2:

e|5-5-5-5-5-5-5-5-5-5-5-5-5-5-5-5|5-5-5-5-5-5-5-5-5-5-5-5-5-5-5-5|                     --
B|5-5-5-5-5-5-5-5-5-5-5-5-5-5-5-5|5-5-5-5-5-5-5-5-5-5-5-5-5-5-5-5|                       \
G|6-6-6-6-6-6-6-6-6-6-6-6-6-6-6-6|6-6-6-6-6-6-6-6-6-6-6-6-6-6-6-6|                        \
D|7-7-7-7-7-7-7-7-7-7-7-7-7-7-7-7|7-7-7-7-7-7-7-7-7-7-7-7-7-7-7-7|                         | 
A|7-7-7-7-7-7-7-7-7-7-7-7-7-7-7-7|7-7-7-7-7-7-7-7-7-7-7-7-7-7-7-7|                         |
E|5-5-5-5-5-5-5-5-5-5-5-5-5-5-5-5|5-5-5-5-5-5-5-5-5-5-5-5-5-5-5-5|                         |
                                                                                          /
  1       2       3       4       1       2       3       4                              /   (x2)
                                                                                         \
                                                                                          \
e|10-10-10-10-10-10-10-10-10-10-10-10-10-10-10-10|5-5-5-5-5-5-5-5-5-5-5-5-5-5-5-5|         |
B|10-10-10-10-10-10-10-10-10-10-10-10-10-10-10-10|5-5-5-5-5-5-5-5-5-5-5-5-5-5-5-5|         |
G|11-11-11-11-11-11-11-11-11-11-11-11-11-11-11-11|6-6-6-6-6-6-6-6-6-6-6-6-6-6-6-6|         |
D|12-12-12-12-12-12-12-12-12-12-12-12-12-12-12-12|7-7-7-7-7-7-7-7-7-7-7-7-7-7-7-7|        /
A|12-12-12-12-12-12-12-12-12-12-12-12-12-12-12-12|7-7-7-7-7-7-7-7-7-7-7-7-7-7-7-7|       /
E|10-10-10-10-10-10-10-10-10-10-10-10-10-10-10-10|5-5-5-5-5-5-5-5-5-5-5-5-5-5-5-5|     --

  1           2           3           4           1       2       3       4


Chorus:

Guitar 1:

e|-----------------------------------------------|-----------------------------------------------|#
B|-----------------------------------------------|-----------------------------------------------|#
G|------------------------------------14----14---|------------------------------------14----14---|#
D|14-14-12-12-11-11-14-14-12-12-11-11----11----11|14-14-12-12-11-11-14-14-12-12-11-11----11----11|#
A|-----------------------------------------------|-----------------------------------------------|#
E|-----------------------------------------------|-----------------------------------------------|#

  1           2           3           4           1           2           3           4


e|-----------------------------------------------|-----------------------------------------------|*
B|-----------------------------------------------|-----------------------------------------------|*
G|------------------------------------14----14---|-----------------------------------------------|*
D|14-14-12-12-11-11-14-14-12-12-11-11----11----11|14-14-12-12-11-11------------------------------|*
A|-----------------------------------------------|------------------14-14-12-12-11-11------------|*
E|-----------------------------------------------|------------------------------------14-14-12-12|*

  1           2           3           4           1           2           3           4


Guitar 2:

e|9--9--9--9--9--9--9--9--9--9--9--9--9--9--9--9-|10-10-10-10-10-10-10-10-10-10-10-10-10-10-10-10|
B|10-10-10-10-10-10-10-10-10-10-10-10-10-10-10-10|10-10-10-10-10-10-10-10-10-10-10-10-10-10-10-10|
G|11-11-11-11-11-11-11-11-11-11-11-11-11-11-11-11|11-11-11-11-11-11-11-11-11-11-11-11-11-11-11-11|
D|11-11-11-11-11-11-11-11-11-11-11-11-11-11-11-11|12-12-12-12-12-12-12-12-12-12-12-12-12-12-12-12|
A|9--9--9--9--9--9--9--9--9--9--9--9--9--9--9--9-|12-12-12-12-12-12-12-12-12-12-12-12-12-12-12-12|
E|-----------------------------------------------|10-10-10-10-10-10-10-10-10-10-10-10-10-10-10-10|

  1           2           3           4           1           2           3           4


e|7-7-7-7-7-7-7-7-7-7-7-7-7-7-7-7|10-10-10-10-10-10-10-10-10-10-10-10-10-10-10-10|
B|7-7-7-7-7-7-7-7-7-7-7-7-7-7-7-7|10-10-10-10-10-10-10-10-10-10-10-10-10-10-10-10|
G|7-7-7-7-7-7-7-7-7-7-7-7-7-7-7-7|11-11-11-11-11-11-11-11-11-11-11-11-11-11-11-11|
D|9-9-9-9-9-9-9-9-9-9-9-9-9-9-9-9|12-12-12-12-12-12-12-12-12-12-12-12-12-12-12-12|
A|9-9-9-9-9-9-9-9-9-9-9-9-9-9-9-9|12-12-12-12-12-12-12-12-12-12-12-12-12-12-12-12|
E|7-7-7-7-7-7-7-7-7-7-7-7-7-7-7-7|10-10-10-10-10-10-10-10-10-10-10-10-10-10-10-10|

  1       2       3       4       1           2           3           4


Pro Chorus:

Guitar 1:

e|-------------------------------------|
B|-------------------------------------|
G|---------9---------------------------|
D|----11-----11---11-----11-----11---11|
A|x-0----0------0----x-0----0-7----9---|
E|-------------------------------------|

  1        2         3        4     


Guitar 2:

e|5-5----------------5-5---------------|
B|5-5----------------5-5---------------|
G|6-6----------------6-6---------------|
D|7-7----------------7-7---------------|
A|7-7----------------7-7---------------|
E|5-5----------------5-5---------------|

  1        2         3        4         


*REPEAT VERSE AND CHORUS*


Bridge:

Guitar 2:

e|12-------------x----12-------------x----|10-------------x----10------------------|
B|14-------------x----12-------------x----|12-------------x----10------------------|
G|14-------------x----13-------------x----|12-------------x----11------------------|
D|14-------------x----14-------------x----|12-------------x----12------------------|
A|12-------------x----14-------------x----|10-------------x----12------------------|
E|---------------x----12-------------x----|---------------x----10------------------|
  
  1         2         3         4          1         2         3         4 


Solo:

Haven't quite worked this out - difficult to differentiate between the two guitars. 
May make a separate tab specifically for the solo if i get round to it.


*REPEAT CHORUS TWICE* (Except first time through repeat bars marked with # rather
than playing bars marked with *)

On the second time through a third guitar plays something like this:

Guitar 3:

e|8/10-----10-----10---10-----7/9-9---9--|8/10-----10-----10---10-----7/9-9---9--|
B|-----7-7----7-7----7----7-7-------7---7|-----7-7----7-7----7----7-7-------7---7|
G|---------------------------------------|---------------------------------------|
D|---------------------------------------|---------------------------------------|
A|---------------------------------------|---------------------------------------|
E|---------------------------------------|---------------------------------------|

  1           2        3          4       1           2        3          4


e|8/10-----10-----10---10-----7/9-9---9--|8/10-----10-----10---10-----7/9-9-9-9-9|
B|-----7-7----7-7----7----7-7-------7---7|-----7-7----7-7----7----7-7------------|
G|---------------------------------------|---------------------------------------|
D|---------------------------------------|---------------------------------------|
A|---------------------------------------|---------------------------------------|
E|---------------------------------------|---------------------------------------|

  1           2        3          4       1           2        3          4


Final Bar:

Guitar 1:

e|---------------------------------------|
B|---------------------------------------|
G|---------------------------------------|
D|11-11----------------------------------|
A|0--0-----------------------------------|
E|---------------------------------------|

  1         2         3         4        


Guitar 2:

e|5-5------------------------------------|
B|5-5------------------------------------|
G|6-6------------------------------------|
D|7-7------------------------------------|
A|7-7------------------------------------|
E|5-5------------------------------------|

  1         2         3         4



Tap to rate this tab
 
# A B C D E F G H I J K L M N O P Q R S T U V W X Y Z