Song name
# A B C D E F G H I J K L M N O P Q R S T U V W X Y Z

Absolute Zero - El Mexicano tab

Absolute Zero
El Mexicano
Tabbed by Roach
Tunning: D A D G B E



   Intro  (repeat 8 times)
E :-----------------------------------------------------------------------
B :-----------------------------------------------------------------------
G :-----------------------------------------------------------------------
D :-0-0-3h5p3-0-00--6h8p6-------------------------------------------------
A :-0-0-3h5p3-0-00--6h8p6-------------------------------------------------
D :-0-0-3h5p3-0-00--6h8p6-------------------------------------------------


   Fill   (once)
E :-----------------------------------------------------------------------
B :-----------------------------------------------------------------------
G :-----------------------------------------------------------------------
D :-6-6-66-6-6-666-6-6-66-6-6-666-0---------------------------------------
A :-6-6-66-6-6-666-6-6-66-6-6-666-0---------------------------------------
D :-6-6-66-6-6-666-6-6-66-6-6-666-0-let-it-ring



   Verse   (8 palm muted...8 open)
E :---2-5----25----3-6----36----2-5----25----3-6----36----2-5----25-------
B :-3------3-----4------4-----3------3-----4------4-----3------3----------
G :-----------------------------------------------------------------------
D :-----------------------------------------------------------------------
A :-----------------------------------------------------------------------
D :-----------------------------------------------------------------------


  
E :---3-6----36----2-5----25----3-6----36---------------------------------
B :-4------4-----3------3-----4------4------------------------------------
G :-----------------------------------------------------------------------
D :-----------------------------------------------------------------------
A :-----------------------------------------------------------------------
D :-----------------------------------------------------------------------


   Chorus  (repeat twice)
E :-----------------------------------------------------------------------
B :-----------------------------------------------------------------------
G :-----------------------------------------------------------------------
D :-5-5-5--7-7-7--8-8-8--7-7-7--------------------------------------------
A :-5-5-5--5-5-5--5-5-5--5-5-5--------------------------------------------
D :-0-0-0--0-0-0--0-0-0--0-0-0--------------------------------------------
Tap to rate this tab
# A B C D E F G H I J K L M N O P Q R S T U V W X Y Z