Song name
# A B C D E F G H I J K L M N O P Q R S T U V W X Y Z

Absolute Zero - C4 tab

Help us improve GuitareTab! Take a short survey!
-------------------------------------------------------------------------------
                                C4 - Absolute Zero
-------------------------------------------------------------------------------
Tabbed by: Chris (Absolute Zero band member)
Email: Hotrod6554@hotmail.com
band members: Chris(keyboardguitar), John(guitar), Dom(vocals), Britt(guitar), Chris(drums).

Tuning:Drop D
We don't have a CD FULLY made yet.
This is the second track, hopefully being released this summer.
this is a taste of the intro

e|-3------------------------------------------------------------------------|
B|-2------------------------------------------------------------------------|
G|-3------------------------------------------------------------------------|
D|-0------------------------------------------------------------------------|
A|-0------------------------------------------------------------------------|
D|-0----0-0-0-0-3-3-3-3-0-0-0-0-5-5-5-5-0-0-0-0-3-3-3-3-0-0-0-0-5h6-53-0h3--|

e|----------------------------------------------------------------------|
B|----------------------------------------------------------------------|
G|----------------------------------------------------------------------|
D|----------------------------------------------------------------------|
A|--0-0-0-0-3-3-3-3-0-0-0-0-5-5-5-5-0-0-0-0-3-3-3-3-0-0-0-0-5h6-53-0h3--|
D|--0-0-0-0-3-3-3-3-0-0-0-0-5-5-5-5-0-0-0-0-3-3-3-3-0-0-0-0-5h6-53-0h3--|

| /  slide up
|   slide down
| h  hammer-on
| p  pull-off
| ~  vibrato
| +  harmonic
| x  Mute note
===============================================================================
Related for C4 tab