Song name
# A B C D E F G H I J K L M N O P Q R S T U V W X Y Z

Absu - Coming Of War tab

Absu
Coming of War
Sun Of Tiphareth

This is Absu's versin not the Morbid Scream version.
It should be about 90% correct.

I'm not sure about the tuning but I play it a whole step down and it sounds fine.

intro riff
--------------------------------------------------------------|
--------------------------------------------------------------|
--------------------------------------------------------------|
--------------------------------------------------------------|
-2-22-3-5-3---------------------------------------------------|
-0-00-1-3-1---------------------------------------------------|
pm ..

riff 1
--------------------------------------------------------------|
--------------------------------------------------------------|
--------------------------------------------------------------|
--------------------------------------------------------------|
-----------------------------------2-1------------------------|
-0-0000-0000-000-3-0-0000-0000-000----------------------------|

riff 2
--------------------------------------------------------------|
--------------------------------------------------------------|
--------------------------------------------------------------|
--------------4-----------------------------------------------|
-2-2225--2-2222-2-222-45533-----------------------------------|
-0-0003--0-000--0-000-23311-----------------------------------|

riff 3
--------------------------------------------------------------|
--------------------------------------------------------------|
--------------------------------------------------------------|
-44-----------------------------------------------------------|
-22-2-77-55-2222222-------------------------------------------|
----0-55-33-0000000-------------------------------------------|
pm  .

riff 4
--------------------------------------------------------------|
--------------------------------------------------------------|
--------------------------------------------------------------|
----------------------------------54--------------------------|
-2-22-2-22-2-22-21-2-22-2-22-2-22-32--------------------------|
-0-00-0-00-0-00-03-0-00-0-00-0-00-----------------------------|
pm ..   ..   ..      ..   ..   ..

riff 5
--------------------------------------------------------------|
--------------------------------------------------------------|
--------------------------------------------------------------|
-9-95---------------------------------------------------------|
-7-73--2-22-222-----------------------------------------------|
-------0-00-000-----------------------------------------------|

Thats about it.I might've missed a riff or two but if i did its not significant enough 
be tabbed and shouldn't be hard to tab out yourself.

http://www.myspace.com/absu
http://www.geocities.com/SunsetStrip/pit/2885/absu/
Tap to rate this tab
# A B C D E F G H I J K L M N O P Q R S T U V W X Y Z