Guitaretab - guitar tabs
Song name
# A B C D E F G H I J K L M N O P Q R S T U V W X Y Z

Absurd - Deep Dark Forest tab

Riff1, Riff2
E|----------------------------------------------------------|
H|----------------------------------------------------------|
G|---8-5----------------------------------------------------|
D|-5-6-3----------------------------------------------------|
A|-3--------------------------------------------------------|
E|----------------------------------------------------------|
[ Tab from: http://www.guitaretab.com/a/absurd/107870.html ]
E|---------|-----|--3---------------------------------------|
H|---------|-----|----4-------------------------------------|
G|---------|-----|------5-----------------------------------|
D|-5-5-5-3-|-...-|--------5---------------------------------|
A|-3-3-3-1-|-...-|------------------------------------------|
E|---------|-----|------------------------------------------|


Riff3
E|----------------------------------------------------------|
H|----------------------------------------------------------|
G|----------------------------------------------------------|
D|------------10-11--9-5------------------------------------|
A|-8-4-8-3--8--8--9--7-3------------------------------------|
E|-6-2-6-1--6-----------------------------------------------|

Riff4
E|----------------------------------------------------------|
H|----------------------------------------------------------|
G|-------8--------8-----------------------------------------|
D|-5---8-6--5---8-6--5-7------------------------------------|
A|-3-6-6----3-6-6----3-5------------------------------------|
E|---4--------4---------------------------------------------|
Related for Deep Dark Forest tab
Advertisement will be closed in 10 seconds