Song name
# A B C D E F G H I J K L M N O P Q R S T U V W X Y Z

Absurd - Der Sieg Ist Unser tab

Intro:
E|----------------------------------------------------------|
H|----------------------------------------------------------|
G|----------------------------------------------------------|
D|----------------------------------------------------------|
A|-7-76-6---------------------------------------------------|
E|-5-54-4---------------------------------------------------|

Verse1:
E|----------------------------------------------------------|
H|----------------------------------------------------------|
G|----------------------------------------------------------|
D|----------------------------------------------------------|
A|-7777777777777777-6666666666666666- x2--------------------|
E|-5555555555555555-4444444444444444- x2--------------------|

Chorus:
E|----------------------------------------------------------|
H|----------------------------------------------------------|
G|----------------------------------------------------------|
D|-54-45- x14-----------------------------------------------|
A|-32-23- x14-----------------------------------------------|
E|----------------------------------------------------------|

E|----------------------------------------------------------|
H|----------------------------------------------------------|
G|----------------------------------------------------------|
D|-55555555-4444444-----------------------------------------|
A|-33333333-2222222-----------------------------------------|
E|----------------------------------------------------------|

Verse2:
E|----------------------------------------------------------|
H|----------------------------------------------------------|
G|----------------------------------------------------------|
D|----------------------------------------------------------|
A|-3333333333333333-4444444444444444- x2--------------------|
E|-1111111111111111-2222222222222222- x2--------------------|

E|----------------------------------------------------------|
H|----------------------------------------------------------|
G|----------------------------------------------------------|
D|----------------------------------------------------------|
A|-5555555555555555-4444444444444444- x2--------------------|
E|-3333333333333333-2222222222222222- x2--------------------|

E|----------------------------------------------------------|
H|----------------------------------------------------------|
G|----------------------------------------------------------|
D|----------------------------------------------------------|
A|-7777777777777777-6666666666666666- x2--------------------|
E|-5555555555555555-4444444444444444- x2--------------------|
Tap to rate this tab
 
# A B C D E F G H I J K L M N O P Q R S T U V W X Y Z