Song name
# A B C D E F G H I J K L M N O P Q R S T U V W X Y Z

Absurd - Nordmaennerlied tab

RIFF1, RIFF2
E|----------------------------------------------------------------------------------------|
H|----------------------------------------------------------------------------------------|
G|----------------------------------------------------------------------------------------|
D|7-7-7-5-5-----------------------7-7-7---------------------------------------------------|
A|7-7-7-5-5-----7-7-7-5-5-5-7-7-7-5-5-5-7-7-7-5-7-7---------------------------------------|
E|5-5-5-3-3-----5-5-5-3-3-3-5-5---------5-5-5-3-5-5---------------------------------------|

RIFF3, RIFF4
E|----------------------------------------------------------------------------------------|
H|----------------------------------------------------------------------------------------|
G|-13-13-11-9--------------------------8-8-8-6-8-9-8-6-6-6-4-6-6--------------------------|
D|--------------11-11--9-13-11------------------------------------------------------------|
A|----------------------------------------------------------------------------------------|
E|----------------------------------------------------------------------------------------|

RIFF5
E|----------------------------------------------------------------------------------------|
H|----------------------------------------------------------------------------------------|
G|----------------------------------------------------------------------------------------|
D|----------------------------------------------------------------------------------------|
A|-7-7-7-9-9-9-10--9-7-5-7-7--------------------------------------------------------------|
E|-5-5-5-7-7-7--8--7-5-3-5-5--------------------------------------------------------------|

RIFF6, RIFF7
E|-----------------------------------------------------------------------------------------|
H|-----------------------------------------------------------------------------------------|
G|--------------------------------------------17-17-17-15-17-19-19-19-20-20-19-17-15-17-17-|
D|-10-10-8-10-12-12-12-12-13-13-12-10-8-10-10----------------------------------------------|
A|-----------------------------------------------------------------------------------------|
E|-----------------------------------------------------------------------------------------|
Tap to rate this tab
 
# A B C D E F G H I J K L M N O P Q R S T U V W X Y Z