Guitaretab - guitar tabs
Song name
# A B C D E F G H I J K L M N O P Q R S T U V W X Y Z

Absurd - Wolfskrieger tab

RIFF1, RIFF2
E|----------------------------------------------------------------------------------------|
H|----------------------------------------------------------------------------------------|
G|----------------------------------------------------------------------------------------|
D|----------------------------------------------------------------------------------------|
A|12-7-7-5-7-7-8-8-7---------7-7-7-5-7-9-7-10-10-10--12-10--9-7---------------------------|
E|10-5-5-3-5-5-6-6-5---------5-5-5-3-5-7-5-8---8--8--10--8--7-5---------------------------|

RIFF3, RIFF4
E|----------------------------------------------------------------------------------------|
H|----------------------------------------------------------------------------------------|
G|----------------------------------------------------------------------------------------|
D|-9-9-7-9--11--9-12-12-12-14-12--11--9---------------------------------------------------|
A|-7-7-5-7---9--7-10-10-10-12-10---9--7-----------7-7-5-7-3-3-2---------------------------|
E|----------------------------------------------------------------------------------------|
[ Tab from: http://www.guitaretab.com/a/absurd/107879.html ]
Related for Wolfskrieger tab
×
Wolfskrieger