Song name
# A B C D E F G H I J K L M N O P Q R S T U V W X Y Z

Absurd - Gates Of Heaven tab

Intro\chorus

e------------------------------------|
h------------------------------------|
g------------------------------------|
d------------------------------------|
a-7-777-9-10-9-7-5--7-777-9-10-7-5-2-|
E-5-555-7-8--7-5-3--5-555-7-8--5-3-0-|



Verse:

e------------------------------------------------------------------|
h------------------------------------------------------------------|
g------------------------------------------------------------------|
d--------------5-4-------------------------4-44-5-4----------------|
a-7-777-9-2-22-3-2-7-77-9-99-5-2-7-77-5-55-2-22-3-2-7-77-5-55-2-5-5|
E-5-555-7-0-00-----5-55-7-77-3-0--5-55-3-33---------5-55-3-33-0-3-3|




There was a night - the only night that was real
I felt like the chosen one
But there was no thunder, there was no lightning
So I thought I were dreaming on

Chorus

Straight on through the gates of heaven
Evil will destroy the souls
Where's your saviour, where hides jesus
Why isn't he at war against us


Darkness around us was so sizeable
Black blood running through my veins
We do, what we did was unacceptable
But our hearts were by evil love chained

Chorus
Tap to rate this tab
 
# A B C D E F G H I J K L M N O P Q R S T U V W X Y Z