Absynthe Minded - Envoi tab

Hi guys, first time poster but this should be correct.
For timing and rhythm listen to the song. The chords throughout the solo are 
listen when they start are essentially the intro and verse chords.

Enjoy!


      Am  G  F#  F  (4x)
e|-----------------------------------------------------------------------------------------------|
B|----6--5--3--5--3-----3---------3---------3/5-----------6--5--3--5---3-------------------------|
G|-------------------5---------5-------5----------------------------------5--4--0--2--2----0-----|
D|-----------------------------------------------------------------------------------------------|
A|-----------------------------------------------------------------------------------------------|
E|-----------------------------------------------------------------------------------------------|

                Am  F  C  (4x)
e|-----------------------------------------------------------------3~----5~------|
B|-------------------------------------1---------1--X--1--3--3/5-----------------|
G|---------------------0--2--0--2--------------2---------------------------------|
D|----0h2--2----0--2-------------------------------------------------------------|
A|-------------------------------------------------------------------------------|
E|-------------------------------------------------------------------------------|


e|----7-7-7~--5--3--1-1---3-3--1--0----------------------------------------------|
B|----------------------------------------------3--1h3-5-------------------------|
G|------------------------------------------3h5----------------------------------|
D|-------------------------------------------------------------------------------|
A|-------------------------------------------------------------------------------|
E|-------------------------------------------------------------------------------|


e|----5--5~~---7-7-7b---7b--5---3--X--12~~---------------11h12p11-11h10p11-9h10p9--8----|
B|--------------------------------------------------------------------------------------|
G|--------------------------------------------------------------------------------------|
D|--------------------------------------------------------------------------------------|
A|--------------------------------------------------------------------------------------|
E|--------------------------------------------------------------------------------------|
Tap to rate this tab
 
# A B C D E F G H I J K L M N O P Q R S T U V W X Y Z