Song name
# A B C D E F G H I J K L M N O P Q R S T U V W X Y Z

Absynthe Minded - Little Rascal tab

Absynthe Minded
ďLittle RascalĒ
As It Ever Was (2012)



Tuning : Half step down





Actually, you have to play the bass during the song :

    F#               E               C#
eb|-------------------------------------------------------------------|
Bb|-------------------------------------------------------------------|
Gb|-------------------------------------------------------------------|
Db|-------------------------------------------------------------------|
Ab|---------------------------------/4---4-4-4-4-4-4-4-4-4-4-4-4-4-4--|
Eb|--2---2-2-2-2-2-2-0---0-0-0-0-0-0----------------------------------|



But if you want to play the song without other instruments, I think you should play the 
entire chords :

Chords used

    F#m   E     C#m

eb|--2-----0-----4--|
Bb|--2-----0-----5--|
Gb|--2-----1-----6--|
Db|--4-----2-----6--|
Ab|--4-----2-----4--|
Eb|--2-----0----(4)-|





    F#m             E               C#m
eb|--2---2-2-2-2-2-2-0---0-0-0-0-0-0-4---4-4-4-4-4-4-4---4-4-4-4-4-4--|
Bb|--2---2-2-2-2-2-2-0---0-0-0-0-0-0-5---5-5-5-5-5-5-5---5-5-5-5-5-5--|
Gb|--2---2-2-2-2-2-2-1---1-1-1-1-1-1-6---6-6-6-6-6-6-6---6-6-6-6-6-6--|
Db|--4---4-4-4-4-4-4-2---2-2-2-2-2-2-6---6-6-6-6-6-6-6---6-6-6-6-6-6--|
Ab|--4---4-4-4-4-4-4-2---2-2-2-2-2-2-4---4-4-4-4-4-4-4---4-4-4-4-4-4--|  x3
Eb|--2---2-2-2-2-2-2-0---0-0-0-0-0-0----------------------------------|


eb|--/4---4-4-4-4-4-4-4\---------------|
Bb|--/5---5-5-5-5-5-5-5\---------------|
Gb|--/6---6-6-6-6-6-6-6\----- violin --|
Db|--/6---6-6-6-6-6-6-6\-------  part -|
Ab|--/4---4-4-4-4-4-4-4\---------------|  x3
Eb|------------------------------------|



F#m       E
         Iíve seen you before
C#m
  Iím quite sure that weíve met
F#m       E
         Youíre a little rascal
C#m
  And youíre bittersweet
F#m             E
        Itís a lovely little game that weíre playing
C#m
  Itís a lovely game that weíre playing
F#m     E     C#m      C#m(slide down)


eb|--/4---4-4-4-4-4-4-4\---------------|
Bb|--/5---5-5-5-5-5-5-5\---------------|
Gb|--/6---6-6-6-6-6-6-6\----- violin --|
Db|--/6---6-6-6-6-6-6-6\-------  part -|
Ab|--/4---4-4-4-4-4-4-4\---------------|  x3
Eb|------------------------------------|


F#m       E
         Iím not even gonna try
C#m
  Canít see a reason why
F#m        E
          Iíll say it in your face
C#m
  Iíll say it loud and clear
F#m               E
          Itís a lovely little game that weíre playing
C#m
  Itís a lovely game that weíre playing
F#m       E       C#m
                       And you were saying ?


    F#m             E               C#m
eb|--2---2-2-2-2-2-2-0---0-0-0-0-0-0-4---4-4-4-4-4-4-4---4-4-4-4-4-4--|
Bb|--2---2-2-2-2-2-2-0---0-0-0-0-0-0-5---5-5-5-5-5-5-5---5-5-5-5-5-5--|
Gb|--2---2-2-2-2-2-2-1---1-1-1-1-1-1-6---6-6-6-6-6-6-6---6-6-6-6-6-6--|
Db|--4---4-4-4-4-4-4-2---2-2-2-2-2-2-6---6-6-6-6-6-6-6---6-6-6-6-6-6--|
Ab|--4---4-4-4-4-4-4-2---2-2-2-2-2-2-4---4-4-4-4-4-4-4---4-4-4-4-4-4--|  x4
Eb|--2---2-2-2-2-2-2-0---0-0-0-0-0-0----------------------------------|


F#m              E
        It was a funny night
C#m
  I had a fun time
F#m             E
              Youíre a little rascal
C#m
  Feeling bittersweet
F#m              E
         Itís a lovely little game that weíre playing
C#m
  Itís a lovely game that weíre playing
F#m       E                      C#m
           And you were saying ?


Before the lead guitar outro, you can play this :

eb|-----------------------------------|
Bb|-----------------------------------|
Gb|-----------------------------------|
Db|-----------------------------------|
Ab|-/4---4-4-4-4-4-4/4---4-4-4-4-4-4--|
Eb|-----------------------------------|




While the rhythm guitar is still playing the verses chords, the other guitar plays the 
outro :

eb|--------9-------9-----------9-----9---------------|
Bb|-----10------10------10---9-----9-----9-----------|
Gb|--11------11------11----9-----9-----9-------------|
Db|--------------------------------------------------|
Ab|--------------------------------------------------|
Eb|--------------------------------------------------|

eb|-------12------12------12------12------10------9--|
Bb|-----9-------9-------9-------9--------------------|
Gb|--------------------------------------------------|
Db|--11------11------11------11-------11------11-----|
Ab|--------------------------------------------------|
Eb|--------------------------------------------------|






*Sometimes, in live performances, Jan plays some notes during the second part of the 
verses :
 eb|----------------------------------------------------------------|
 Bb|--9~----9~----9~----9~---- or ----9h10----9h10----9h10----9h10--|
 Gb|----------------------------------------------------------------|
 Db|----------------------------------------------------------------|
 Ab|----------------------------------------------------------------|
 Eb|----------------------------------------------------------------|


*If you want to play this song on standard tuning, the chorus are Fm, Eb and Cm. For the 
lead guitar, move your fingers one fret to the left.



AF
Tap to rate this tab
 
# A B C D E F G H I J K L M N O P Q R S T U V W X Y Z