Song name
# A B C D E F G H I J K L M N O P Q R S T U V W X Y Z

Absynthe Minded - Envoi tab

Hello guys, this is the solo of Envoi of Absynthe Minded.
Hope you'll enjoy, to get the rhythm listen to the song,
I think all the notes are 100% right

SOLO Absynthe Minded Envoi

e|--------------------------------------------------|
B|-6-5---5-----------5--6-5---5---------------------|
G|-----7---7-5-7-7-5--------7---7-54---------------|
D|------------------------------------5-7-5---------|
A|------------------------------------------5h7-7---|
E|--------------------------------------------------|

e|--------------------------------------------------|
B|-------------------------------8-10p8-(10)s12-----|
G|-------------------5---5-5-7s9--------------------|
D|-5---------5-7-5-7---7----------------------------|
A|---9-8-5h7----------------------------------------|
E|--------------------------------------------------|

e|--------------------------------------------------|
B|-12-12-12-10-8-6-8-8-6-5-----5-----5-10-8-10------|
G|-------------------------5p7---5p7----------------|
D|--------------------------------------------------|
A|--------------------------------------------------|
E|--------------------------------------------------|

e|-------------------12-12p10-10p8-8p7-5------------|
B|-12-13-13-12-10--8--------------------------------|
G|--------------------------------------------------|
D|--------------------------------------------------|
A|--------------------------------------------------|
E|--------------------------------------------------|
Tap to rate this tab
# A B C D E F G H I J K L M N O P Q R S T U V W X Y Z