Guitaretab - guitar tabs
Song name
# A B C D E F G H I J K L M N O P Q R S T U V W X Y Z

Absynthe Minded - Plane Song tab

Plane Song  Absynthe Minded

Guitar 1  Standard Tuning  Distortion Guitar
Guitar 2  Standard Tuning  Distortion Guitar

Guitar 1
E|------------------------|---------------------|----------------------|
B|------------------------|---------------------|----------------------|
G|--------------7---7---7-|--7---7---8---8---8--|--3---3---3---3---3---|
D|--5---5---5---7---7---7-|--7---7---8---8---8--|--3---3---3---3---3---|
A|--5---5---5---5---5---5-|--5---5---6---6---6--|--1---1---1---1---1---|
E|--3---3---3-------------|---------------------|----------------------|


E|------------------------|---------------------|----------------------|
B|------------------------|---------------------|----------------------|
G|--------------7---7---7-|--7---7---3---3---3--|--3---3---3---3---3---|
D|--5---5---5---7---7---7-|--7---7---3---3---3--|--3---3---3---3---3---|
A|--5---5---5---5---5---5-|--5---5---1---1---1--|--1---1---1---1---1---|
E|--3---3---3-------------|---------------------|----------------------|

Guitar 1
[ Tab from: http://www.guitaretab.com/a/absynthe-minded/88219.html ]
Volume Down
E|------------------------|---------------------|----------------------|
B|------------------------|---------------------|----------------------|
G|--------------7---7---7-|--7---7---8---8---8--|--3---3---3---3---3---|
D|--5---5---5---7---7---7-|--7---7---8---8---8--|--3---3---3---3---3---|
A|--5---5---5---5---5---5-|--5---5---6---6---6--|--1---1---1---1---1---|
E|--3---3---3-------------|---------------------|----------------------|

Guitar 2
E|------------------------|---------------------|----------------------|
B|------------------------|---------------------|----------------------|
G|--------------7~--------|----------8~---------|--3~------------------|
D|--5~----------7~--------|----------8~---------|--3~------------------|
A|--5~----------5~--------|----------6~---------|--1~------------------|
E|--3~--------------------|---------------------|----------------------|


Guitar 1
E|------------------------|---------------------|----------------------|
B|------------------------|---------------------|----------------------|
G|--------------7---7---7-|--7---7---3---3---3--|--3---3---3---3---3---|
D|--5---5---5---7---7---7-|--7---7---3---3---3--|--3---3---3---3---3---|
A|--5---5---5---5---5---5-|--5---5---1---1---1--|--1---1---1---1---1---|
E|--3---3---3-------------|---------------------|----------------------|


Guitar 2
E|------------------------|---------------------|----------------------|
B|------------------------|---------------------|----------------------|
G|--------------7~--------|----------3~---------|----------------------|
D|--5~----------7~--------|----------1~---------|----------------------|
A|--5~----------5~--------|----------1~---------|----------------------|
E|--3~--------------------|---------------------|----------------------|

~=let ring
Related for Plane Song tab