Song name
# A B C D E F G H I J K L M N O P Q R S T U V W X Y Z

Abysmal Torment - Epoch Of Methodic Carnage tab

Song : EPOCH OF METHODIC CARNAGE
Band : ABYSMAL TORMENT
ALBUM : Epoch Of Methodic Carnage



::TABULATURE LEGEND::
 " - tremolo             h - hammer on
 ~ - vibrato             \ - slide down
 p - pull off            / - slide down
 tr - trill              ^ - pinch harmonics
 = - sustained note      b - bend string
 p.m. - palm muting      t - tapping

[*] - number of times part or bar repeats
=*= - time marker

TUNING: G#, C#, F#, B, D#, G#

[Intro] =0:02=
|---------[x2]-|---------[x2]-|----------------------------[x2]-|
|--------------|--------------|---------------------------------|
|--------------|--------------|---------------------------------|
|-4========-4--|-4========-4--|-4===-5-5-5-7-5--4===-7-7-7-7-5--|
|-4========-4--|-4========-4--|-4===-2-2-2-4-2--4===-4-4-4-4-2--|
|-2========-3--|-2========-3--|-2===-3-3-3-5-3--2===-5-5-5-5-3--|
|              |              |                                 |
|---------[x2]-|---------[x2]-|----------------------------[x2]-|
|--------------|--------------|---------------------------------|
|--------------|--------------|---------------------------------|
|-4========-4--|-4==-------4--|-4===-5-5-5-7-5--4===-7-7-7-7-5--|
|-4========-4--|-4==-4"-5"-4--|-4===-2-2-2-4-2--4===-4-4-4-4-2--|
|-2========-3--|-2==-------3--|-2===-3-3-3-5-3--2===-5-5-5-5-3--|

[Riff 1 (x5)] =0:24=
|--------------------------|------------------------|
|--------------------------|------------------------|
|--------------------------|------------------------|
|----3"-5"-----------------|------------------------|
|----------4p0-4"-6"-------|-------2"-----5-55-6-66-|
|-0"-----------------5"-0"-|-0"-1"----1p0-3-33-4-44-|

 [Outro] =0:39=
 -------------------------------|
 -------------------------------|
 -------------------------------|
 -------------------------------|
 -4-3----4-3-4-6-7-6----4-3-^---|
 -2-1----2-1-2-4-5-4----2-1-3~~-|
  . .    . . . . . .    . .

[Riff 2 (x8)] /quick picking/ =0:42=
|---------------------------------|
|---------------------------------|
|---------------------------------|
|---------------------------------|
|---------------------------------|
|-3-3-0-0-1-1-0-0-3-3-3-3-4-4-4-4-|
  . . . . . . . . . . . . . . . .

[Riff 3] =0:56=
|----------------------------[x2]-|------------------------------[x2]-|
|---------------------^-----------|-----------------------------------|
|---------------------3~~---------|------------------^----------------|
|---------------------------------|------------------3~---------------|
|-4-3-^---4-3-4-6-7-3-----4-3-4-6-|-^--4-3-4-5-6-5-4----4-3-4-5-6-5-4-|
|-2-1-3~~-2-1-2-4-5-1-----2-1-2-4-|-3~-2-1-2-3-4-3-2----2-1-2-3-4-3-2-|
  . .     . . . . . .     . . . .      . . . . . . .    . . . . . . .

[RIFF 1 (x4)] =1:09=

[Riff 4 (x8)] =1:22=                 ...outro 1 =1:34= /slow down/
|--------------------------------|  -----------------------|
|--------------------------------|  -----------------------|
|--------------------------------|  -----------------------|
|--------------------------------|  -/5--4--4--4--4--4--4--|
|-----2~-----3-3-5-5-----5-5-6-6-|  -/2--4--4--4--4--4--4--|
|-0-0----1-1---------3-3---------|  -/3--2--2--2--2--2--2--|
  . .    . . . . . . . . . . . .         .  .  .  .  .  .

[Riff 5] =1:36=               ...outro 2 =1:38=
|-------------------------|  -----------------------|
|-------------------------|  -----------------------|
|-------------------------|  -----------------------|
|-------------------------|  -------------------^---|
|----2"----3"-5"----5"-6"-|  ----2"----3"-5--4--1~~-|
|-0"----1"-------3"-------|  -0"----1"----3--2------|
                                          .  .

[RIFF 5 (x8)] =1:41=

 [Outro 3] =1:58=   [Riff 6 (x8)] =2:00=
 ------------------|------------------------------|
 ---------7744-----|------------------------------|
 -----5522----5211-|------------------------------|
 -3322-------------|------------------------------|
 ------------------|-3-3-3--3--2=====-2-2-3-3-3-3-|
 ------------------|-1-1-1--1--0=====-3-3-4-4-1-1-|
                     . . .  .         . . . . . .

 [Outro 4] /quick picking/ =2:18=
 ---------------------------------|-----------------------------|
 ---------------------------------|-----------------------------|
 ---------------------------------|-----------------------------|
 -----------------------------1-1-|-4-4-4--5-5-5----------------|
 -----2-2-1-1---------2-2-3-3-----|-2-2-2--3-3-3--5-5-5--6-6-6--|
 -0-0---------3-3-2-2-------------|---------------3-3-3--4-4-4--|
  . . . . . . . . . . . . . . . .   . .    . .    . .    . .

[Riff 6 (x2)] =2:23=
|----------------------------[x3]-|--------------------------------|
|---------------------------------|--------------------------------|
|---------------------------------|--------------------------------|
|-----------------------------1-1-|---------6h7h9~---------7h8h10~-|
|-----2-2-1-1---------2-2-3-3-----|-5-5-6h7--------6-6-7h8---------|
|-0-0---------3-3-2-2-------------|--------------------------------|
  . . . . . . . . . . . . . . . .   . .            . .

 [Outro 5] =2:34=
 -----------------------------------|------------|
 -----------------------------------|------------|
 -----------------------------------|------------|
 ---------8h9-11~----------9h10h12~-|------------|
 -7-7-8h9---------8-8-9h10----------|-4========--|
 -----------------------------------|-2========--|
  . .             . .

[Riff 7 (x4)] =2:39=
|--------------------------------|----------------------------|
|--------------------------------|----------------------------|
|--------------------------------|----------------------------|
|--------------------------------|------------3"----3"----3"--|
|-----2-2-----3-3-----3-3--------|-4--------------------------|
|-0-0-----0-0-----0-0-----0-0-1~-|----2-2-2-2----2"----2"-----|
  . . . . . . . . . . . . . .         . . . .

-|-----------------------------|----------------------------------|
-|-----------------------------|----------------------------------|
-|-----------------------------|----------------------------------|
-|-----------------------------|----------------------------------|
-|-2----------3------3---------|-7-7-7-7-8-8-8-8-1010101011111111-|
-|----0-0-0-0----0-0----0-0-1~-|-5-5-5-5-6-6-6-6-8-8-8-8-9-9-9-9--|
      . . . .    . .    . .

[Riff 8 (x8)] =3:07=                 ...outro 6 =3:19=
|---------------------------------|  -----------------|
|---------------------------------|  -----------------|
|---------------------------------|  -----------------|
|---------------------------------|  -4======-4======-|
|-----7-7-----7-7-8-8-----8-8-9-9-|  -4======-4======-|
|-5-5-----5-5---------6-6---------|  -2======-3======-|
  . . . . . . . . . . . . . . . .

[Riff 9 (x4)] =3:21=
|--------------------------------------------------------|
|--------------------------------------------------------|
|--------------------------------------------------------|
|-----------t15p12..-t21p18..-t15p12..-t21p18..-t15p12..-|
|-5-5-5--2-----------------------------------------------|
|-3-3-3--0-----------------------------------------------|
  . . .      \__________pick tapping section/__________/


 --------------------------------------------------------|
 --------------------------------------------------------|
 --------------------------------------------------------|
 --------------------t21p18..-t20p17..-t21p18..-t20p17..-|
 -5-5-5--2--7/......-------------------------------------|
 -3-3-3--0-----------------------------------------------|
  . . .             \_______pick tapping section/______/

[OUTRO 6] =3:37=

END OF SONG
Tap to rate this tab
# A B C D E F G H I J K L M N O P Q R S T U V W X Y Z