Song name
# A B C D E F G H I J K L M N O P Q R S T U V W X Y Z

Abyss - Dark Water tab

 this is my first tab so I hope it's good

------------------------------------------------------------|
------------------------------------------------------------|
------------------------------------------------------------|
------------------------------------------------------------|x3
-22-22-2-33-33-3-22-22-2-1----------------------------------|
0--0--0-0--0--0-0--0--0-0-----------------------------------|

 then

-------------------------------------------------------------|
-------------------------------------------------------------|
-------------------------------------------------------------|
-22-22-2-33-33-3-22-22-2-1-----------------------------------|
0--0--0-0--0--0-0--0--0-0------------------------------------|
-------------------------------------------------------------|

okay that is it sorry I dont have the solo yet

enjoy


email for questions at seferoth24@yahoo.com
Tap to rate this tab
# A B C D E F G H I J K L M N O P Q R S T U V W X Y Z