Guitaretab - guitar tabs
Song name
# A B C D E F G H I J K L M N O P Q R S T U V W X Y Z

Abyssos - In Fear They Left The World Unseen tab

Artist:Abyssos
Album:Together We Summon The Dark
Song:In Fear They Left The World Unseen
Tab By:Rob Vargo (SauronSatan666@Hotmail.com) 



Abyssos is just an Amazing Band,and here is one of their Amazing Masterpieces. Use
WinAmp and use the speaker slider to listin to the different guitar's more clearly.
All Riffs Are correct just listin to the song if you dont know how the riff sounds
L=Left Speaker
R=Right Speaker

Tuning:EADGBe

Intro., Keyboard Arranged For Guitar  play 7 times  0:00-0:57
   Keyboard:Right Hand
e||5-8-7-5-7-8--8-7-5-7-8--8-7-5-7-8--8-7-5-7-8--10-8-7-8-10--10-8-7-8-10-121312-101210-8108-787||
B||---------------------------------------------------------------------------------------------||
G||---------------------------------------------------------------------------------------------||
D||---------------------------------------------------------------------------------------------||
A||---------------------------------------------------------------------------------------------||
E||Keyboard:Left Hand
e||---------------------------------------------------------------------------------------------||
B||---------------------------------------------------------------------------------------------||
G||---------------------------------------------------------------------------------------------||
D||2---------------------------------------------7------------------------9---------------------||
A||0-----------------------3---------------------5------------------------7---------------------||
E||------------------------1--------------------------------------------------------------------||
 ||Both Guitars join on 4th and replace Keyboard:Left Hand Keyboard:Right Hand cuts out on 6th 
e||---------------------------------------------------------------------------------------------||
B||---------------------------------------------------------------------------------------------||
G||---------------------------------------------------------------------------------------------||
D||2---------------------------------------------7--------------------5-7-9---------------------||
A||0-----------------------3---------------------5--------------------3-5-7---------------------||
E||------------------------1--------------------------------------------------------------------||

Riff:1 4x 0:57-1:30
   Guitar:R                                                                                  1/3                2/4
e||-----------------------------------------------------------------|---------------------------|------------------||
B||-----------------------------------------------------------------|---------------------------|------------------||
G||-----------------------------------------------------------------|910910910797979575757454545|910910910910910910||
D||7109-7910-7109-7910--109-7910--109-7910---1210-91012---1210-91012|---------------------------|------------------||
A||--------------------8---------8----------------------------------|---------------------------|------------------||
E||----------------------------------------10-----------10----------|---------------------------|------------------||
 ||Guitar:L                                                                              1/2/3/4
e||-----------------------------------------------------------------|---------------------------||
B||-----------------------------------------------------------------|---------------------------||
G||-9-7-579---9-7-579---9-7-579---9-7-579----109--79-10---109--79-10|---------------------------||
D||7---------7---------7---------7---------7------------7-----------|---------------------------||
A||-----------------------------------------------------------------|78-78-78-575757353535232323||
E||-----------------------------------------------------------------|---------------------------||
 ||Rythem
e||-----------------------------------------------------------------|---------------------------||
B||-----------------------------------------------------------------|---------------------------||
G||-----------------------------------------------------------------|---------------------------||
D||2---------------------------------------7----------------------57|9--------------------------||
A||0-------------------3-------------------5----------------------35|7--------------------------||
E||--------------------1--------------------------------------------|---------------------------||

Riff:2 4x 1:30-1:54
   Guitar:R
e||---------------------------------------------------------------------------------------||
B||---------------------------------------------------------------------------------------||
G||---------------777---------------------777------------------777------------------------||
D||101010777991010---99101010777-------999---999101010777991010---99101010777-------------||
A||------------------------------101010---------------------------------------881010777777||
E||---------------------------------------------------------------------------------------||
 ||Guitar:L
e||---------------------------------------------------------------------------------------||
B||---------------------------------------------------------------------------------------||
G||-----------7710101077999---------------777--------------7710101077999------------------||
D||10101077799-------------101010------999---99910101077799-------------101010------------||
A||------------------------------101010---------------------------------------881010777777||
E||---------------------------------------------------------------------------------------||
 ||Rythem
e||---------------------------------------------------------------------------------------||
B||---------------------------------------------------------------------------------------||
G||---------------------------------------------------------------------------------------||
D||---------------------------------------------------------------------------------------||
A||0--0--0--0--7--7--7--7--0--0--0--0--------------0--0--0--0--7--7--7--7--0--0--0--0-----||
E||------------------------------------3--3--3--3------------------------------------33-33||

Riff:3 2x 1:55-2:20
   Guitar:R
e||-----------------------------------------------------------------------------------------------------||
B||-----------------------------------------------------------------------------------------------------||
G||------555---444---222----------------------------------555---444---222-------------------------------||
D||---222---222---222---222------333---555---333-------222---222---222---222---5555553332323232323232323||
A||000------------------------333---333---333---333-000-------------------------------------------------||
E||------------------------111----------------------------------------------111-------------------------||
 ||Guitar:L
e||----------------------------------------------------------------------------3333331110101010101010101||
B||-----------------------------------------------------------------------------------------------------||
G||------222----------------------------------------------222-------------------------------------------||
D||---222---222555222333222------333---555---557755----222---222555222333222----------------------------||
A||000------------------------333---333---333------7000-------------------------------------------------||
E||------------------------111----------------------------------------------111-------------------------||
 ||Rythem
e||----------------------------------------------------------------------------------------------------||
B||----------------------------------------------------------------------------------------------------||
G||----------------------------------------------------------------------------------------------------||
D||22-22-22-22-22-22-22-22-------------------------22-22-22-22-22-22-22-22-----------------------------||
A||00-00-00-00-00-00-00-00-33-33-33-33-33-33-33-33-00-00-00-00-00-00-00-00-33-33-33-33-33-33-33-22-3355||
E||------------------------11-11-11-11-11-11-11-11-------------------------11-11-11-11-11-11-11-00-1133||

Fill:1 2:20-2:24
   Both Guitars
e||----------------------------------------------------||
B||---------333---------666----------------------------||
G||---222---------555---------------121212---------5555||
D||000---000---333---333---------999---------999-555---||
A||---------------------------777------------777-333---||
E||------------------------000------------000----------||
[ Tab from: http://www.guitaretab.com/a/abyssos/65538.html ]
Riff:4 2x 2:24-2:47
   Both Guitars
e||----------------------------------------------------------------------------------------------------------------||
B||----------------------------------------------------------------------------------------------------------------||
G||---------121212---------5555---------121212-----------10101010---------121212---------5555---------121212-------||
D||------999---------999-555---------999---------999-101010------------999---------999-555---------999------4444554||
A||---777------------777-333------777------------777-8-8-8----------777------------777-333------777---------2222--2||
E||000------------000----------000------------000----------------000------------000----------000-------------------||
 
Riff:5 4x 2:48-3:17
   Both Guitars
e||--------------------------------------------------------------------------------||
B||--------------------------------------------------------------------------------||
G||--------------------------------------------------------------------------------||
D||-----------------------------------77----------------------------------9-9-9-777||
A||101010-777-777-9109-101010-777----9--9-101010-777-777-9109-101010-777-101010-999||
E||------------------------------1010----------------------------------------------||
 ||Rythem
e||--------------------------------------------------------------------------------||
B||--------------------------------------------------------------------------------||
G||--------------------------------------------------------------------------------||
D||999--999--999--4-4-4--999--999--4-4-4--4-4-4-999--999--999-4-4-4-999-999-555-777||
A||777--777--777--2-2-2--777--777--5-5-5--5-5-5-777--777--777-2-2-2-777-777-333-555||
E||--------------------------------------------------------------------------------||

Riff:6 3x 3:17-3:49
   Both Guitars                                                                                        End with
e||--------------------------------------------------------------------------------------------------------||-||
B||--------------------------------------------------------------------------------------------------------||-||
G||---------------------------------------------------------------------------------------------79---------||-||
D||------------------777-----910------------------777-------------------------777-----910-----------79-----||-||
A||---101010777101010---999--78----101010777101010---999--8----101010777101010---999--78---910----------910||2||
E||000---------------------00---000---------------------006-000---------------------00---00---00--00--00---||0||
Clean Tone Riff 4x 3:50-4:28                                         Solo Riff 4x 4:28-5:08
   Both Guitars           on the 4th time on this 6 end with this    Both Guitars
e||7-------------7-------------5-------------5----^--------||------||----------------------------8------------10----------------------||
B||-8---8787------8---8787------6---6565------6---6565-----||------||----8--787---7----------8----8-8------8----11--11--116-----6-----||
G||--9------9---9--9------9---9--7------7---7--7------7---7||------||---9-9----9---9----------8----8-8----9-9-----12--12---7---7-7---7||
D||----9-----9-9-----9-----9-9-----7-----7-7-----7-----7-7-||------||--9---9----9---9------10--10-----10-9---9--------------7-7---7-7-||
A||---7-------7-----7-------7-----5-------5-----5-------5--||3-2-32||/7------------------10-------------7--------------------5-----5--||
E||--------------------------------------------------------||1-0-10||-------------------8---------------------------------------------||

Riff:7 3x 5:08-5:32
   Guitar:R
e||---------------------------------------------------------------------------------------------------------------------||
B||------------8889-9-9-------------------------888777------------------8889-9-9-------------------------888------------||
G||---------999---------101010---------------999------888------------999---------101010---------------999---------------||
D||---9-9-9-------------------101010---9-9-9-------------888---9-9-9-------------------101010---9-9-9----------101010999||
A||777------------------------------777---------------------777------------------------------777------------------------||
E||---------------------------------------------------------------------------------------------------------888---------||
 ||Guitar:L
e||---------------------------------------------------------------------------------------------------------------------||
B||---------------------------------------------------------------------------------------------------------------------||
G||------------999101010------------------------999888------------------999101010------------------------999---9-9-9-777||
D||---------999---------101010---------------999------999------------999---------101010---------------999---------------||
A||777101010------------------8-8-8-777101010---------------777101010------------------8-8-8-777101010------------------||
E||------------------------------------------------------777------------------------------------------------888---------||
 ||Rythem the first time only 5:08-5:15
e||---------------------------------------------------------------------------------------------------------------------||
B||---------------------------------------------------------------------------------------------------------------------||
G||---------------------------------------------------------------------------------------------------------------------||
D||9--------------------------------------------------------9--------------------------------9--------------------------||
A||7--------------------------------------------------------7-------------------------------97--------------3-3-3-3-2-2-||
E||-----------------------------------------------------------------------------------------7---------------------------||
 ||Rythem For 2nd\3rd time    5:15-5:32
e||---------------------------------------------------------------------------------------------------------------------||
B||---------------------------------------------------------------------------------------------------------------------||
G||---------------------------------------------------------------------------------------------------------------------||
D||9-9-9--9-9-9---1010-1010--7--7---9-9-9--9-9-9-8-8-8-8-----9-9-9--9-9-9---1010-1010--7--7---9-9-9--9-9-9--------------||
A||7-7-7--7-7-7---8-8--8-8---5--5---7-7-7--7-7-7-6-6-6-6-9-9-7-7-7--7-7-7---8-8--8-8---5--5---7-7-7--7-7-7--101010101010||
E||------------------------------------------------------7-7------------------------------------------------8-8-8-8-8-8-||

Riff:8 2x 5:32-5:50
   Guitar:R  
e||--------------------------------------------------------------------------------------------------------||-----------||-----------||
B||--------------------------------------------------------------------------------------------------------||-----------||-----------||
G||----------------------------------------999---------121212------------------------------------------9-99||-----------||-----------||
D||------------9------------------------999-------------------------------9-------------------------999----||--------666||--------888||
A||------7-7-7---7-----------------7-7-7---------101010-------------7-7-7---7------------------7-7-7-------||-----666---||-----888---||
E||0-0-0--------------------------------------888-------------0-0-0----------------------------------------||4-4-4------||6-6-6------||
 ||
e||--------------------------------------------------------------------------------------------------------||-----------||-----------||
B||--------------------------------------------------------------------------------------------------------||-----------||-----------||
G||----------------------------------------999---------8-8-8-------------------------------------------9-99||-----------||-----------||
D||------------9------------------------999-------------------------------9-------------------------999----||--------666||--------888||
A||------7-7-7---7-----------------7-7-7---------101010-------------7-7-7---7------------------7-7-7-------||-----666---||-----888---||
E||0-0-0--------------------------------------888-------------0-0-0----------------------------------------||4-4-4------||6-6-6------||
 ||Rythem												     First Time   Second Time
e||--------------------------------------------------------------------------------------------------------||-----------||-----------||
B||--------------------------------------------------------------------------------------------------------||-----------||-----------||
G||--------------------------------------------------------------------------------------------------------||-----------||-----------||
D||9-9-9--9-9-9--1010-1010--7--7---9-9-9--9-9-9---------------9-9-9--9-9-9---1010-1010--7--7---9-9-9--9-9-9||-----------||-----------||
A||7-7-7--7-7-7--8-8--8-8---5--5---7-7-7--7-7-7--101010101010-7-7-7--7-7-7---8-8--8-8---5--5---7-7-7--7-7-7||6-6-6-6-6-6||8-8-8-8-8-8||
E||----------------------------------------------8-8-8-8-8-8-----------------------------------------------||4-4-4-4-4-4||6-6-6-6-6-6||

Play Riff:7 2x 5:50-6:07
Play Riff:8 2x 6:07-6:25
Play Riff:2 2x 6:25-6:38
Play Riff:3 2x 6:38-7:03
Play Riff:4 2x 7:03-7:29
Play Riff:5 4x 7:29-7:59
Play Riff:6 1 and 3\4x 7:59-8:18 listin to the song and you will know what i mean about 1 and 3\4x
Play Riff:1 4x 8:18-9:37 and fade out this Awesome song


Related for In Fear They Left The World Unseen tab