Song name
# A B C D E F G H I J K L M N O P Q R S T U V W X Y Z

Abyssos - Finally I Kissed The Pale Horse tab

Artist:Abyssos
Album:Fhinistian Nightbreed
Song:Finally I Kissed The Pale Horse
Tab By:Rob Vargo(SauronSatan666@hotmail.com)

Tuning:DGCFAd

  I play along with all the songs I ever tab..so play along for the crisp timing, and enjoy another Abyssos Masterpiece
  Use WinAmp and slide the sound to 1 speaker to hear the different Guitars better.    
  Guitar:L=Left Speaker
  Guitar:R=Right Speaker

   Both Guitars 
   Intro Play 2x 0:00-0:19
d||----------------------------------------------------------------------------------------------------------------------||
A||----------------------------------------------------------------------------------------------------------------------||
F||----------------------------------------------------------------------------------------------------------------------||
C||9-9999-9-9999-9-9999-797-4-4444-4-4444-4-4444-7-7777-8-8888-8-8888-7-7777-7-7777--------------------------------------||
G||7-7777-7-7777-7-7777-575-2-2222-2-2222-2-2222-5-5555-6-6666-6-6666-5-5555-5-5555-7-7777-7-7777-11-11111111-12-12121212||
D||---------------------------------------------------------------------------------5-5555-5-5555-9--9-9-9-9--10-10101010||

   Riff:1 Play 2x 0:19-0:39
   Guitar:L
d||-----------------------------------------------------------------------------------------------||
A||--------88888777888777---------------777-------666---------------------------------------------||
F||----------------------------------------888-------777------------------------------------------||
C||----------------------999999---888---------888-------777---777---101010999101010999777555------||
G||77777777--------------------666---666-------------------555---555------------------------444555||
D||-----------------------------------------------------------------------------------------------||
   Guitar:R
d||-----------------------------------------------------------------------------------------------||
A||-------------------------------------777-------666---------------------------------------------||
F||--------99999777999777------------------888-------777------------------------------------------||
C||----------------------999999---888---------888-------777---777---101010999101010999777555------||
G||77777777--------------------666---666-------------------555---555------------------------444555||
D||-----------------------------------------------------------------------------------------------||

   Riff:2 Play 4x 0:39-1:01                                 1:01-1:04
   Guitar:L
d||-------------------------------------------------------||-----------------||
A||-------------------------------------------------------||-----------------||
F||-------------------999999------8888--------------------||-----------------||
C||9----9--10979-------------9--------9-------------------||-----------------||
G||7----7--8-757-------------7---------9-6666-6-6-3333-3-3||7875------------2||
D||-0000-00-----00008---------0000-------4444-4-4-1111-1-1||----875-454-141-0||
   Guitar:R
d||-------------------------------------------------------||-----------------||
A||-------------------------------------------------------||-----------------||
F||-------------------999999------9999--------------------||-----------------||
C||9----9--10979-------------9--------99------------------||-----------------||
G||7----7--8-757-------------7-----------6666-6-6-3333-3-3||7875------------2||
D||-0000-00-----00008---------0000-------4444-4-4-1111-1-1||----875-454-141-0||

   Riff:3 Play 2x 1:04-1:27
   Guitar:L
d||-----------------------------------------------------------------------------------------------------------------------------------------------------------------------||
A||--------------------8888-----------------------------------------------------------------------------------------------------------------------------------------------||
F||-----------------------------------------------------------------------------------------------------------------------7777----8888------------------------------------||
C||--------9-9-9-9-------------9-9-9-9-----------------10101010--------9999797--------------------9-9-9-9-----10101010--------------------9999----101010109109101010109999||
G||7777------------7777----7777--------7777----10101010--------10101010-------10101010999900007777--------7777--------7777----7777----7777----7777------------------------||
D||----0000--------------------------------8888---------------------------------------------------------------------------------------------------------------------------||
   Guitar:R
d||-----------------------------------------------------------------------------------------------------------------------------------------------------------------------||
A||-----------------------------------------------------------------------------------------------------------------------------------------------------------------------||
F||----------------------------------------------------9-9-9-9--------------------------------------------------------------------8888------------------------------------||
C||--------------------9999--------------------------------------------9999797--------------------------------7-7-7-7-----9999------------9999----7777--------7777--------||
G||----7777101010107777----7777101010107777----10101010--------10101010-------10101010999900007777101010107777--------7777----7777----7777----7777----10101010----10101010||
D||0000------------------------------------8888---------------------------------------------------------------------------------------------------------------------------||

   Riff:4 Play 2x 1:27-1:52 this is all quick alternate picking it looks weird cause i wanted to line both guitars up.. listin to the song to get the timing
   Guitar:L                                                                 First Ending       Second Ending         Fill Ending 1:52-1:57
d||------------------------------------------------------------------------|------------------|--------------------||-------------------|-------------------||
A||------------------------------------------------------------------------|------------------|--------------------||-------------------|-------------------||
F||--------------------------10109910109-9-77----77------------------------|------------------|--------------------||-------------------|-------------------||
C||--7-7-667-7---1010991010------------------1010----7-7-667-7---1010991010|------------------|--------------------||9999-9999-7777-5555|4444-4444-8888-8888||
G||00----------00----------88----------------------00----------00----------|77887755----------|778810107788----77--||7777-7777-5555-3333|2222-2222-6666-6666||
D||------------------------------------------------------------------------|--------88775-5-77|------------1010--88||-------------------|-------------------||
   Guitar:R
d||------------------------------------------------------------------------|------------------|--------------------||-------------------|-------------------||
A||--------------------------------------------------------------9-9-779-9-|--------9977----99|--------------------||-------------------|-------------------||
F||--------------9-9-779-9---7-7----77-------------------------------------|------------1010--|--------------------||-------------------|-------------------||
C||--1010991010-----------------1010---1010997-7-99--1010991010------------|557755------------|55778-8-5577----55--||9999-9999-7777-5555|4444-4444-8888-8888||
G||00----------00----------88----------------------00----------00----------|------88----------|------------8-8---77||7777-7777-5555-3333|2222-2222-6666-6666||
D||------------------------------------------------------------------------|------------------|--------------------||-------------------|-------------------||

   Riff:5 Play 2x 1:57-2:10
   Guitar:L                                                                         First Ending Second Ending
d||--------------------------------------------------------------------------------|------------|-----------------||
A||--------------------------------------------------------------------------------|------------|-----------------||
F||--------------------------------------------------------------------------------|------------|-----------------||
C||----99----779-9-10109-9-----99----779-9-----------99----779-9-10109-9-----99----|--------8888|--------101010109||
G||--77--1010----------------77--1010------101099--77--1010----------------77--1010|101010106666|121212128-8-8-8-7||
D||00----------------------00--------------------00----------------------00--------|8-8-8-8-----|10101010---------||
   Guitar:R
d||--------------------------------------------------------------------------------|------------|-----------------||
A||--------------------------------------------------------------------------------|------------|-----------------||
F||----99----------------------99--------------------99----------------------99----|------------|-----------------||
C||--99--9-9-------7-7-------99--9-9-------9-9-77--99--9-9-------7-7-------99--9-9-|--------8888|--------101010109||
G||77--------991010----101077--------991010------77--------991010----101077--------|101010106666|121212128-8-8-8-7||
D||--------------------------------------------------------------------------------|8-8-8-8-----|10101010---------||

   Riff:6 Play 4x 2:10-2:39
   Both Guitars                                    First   Second   Third   Fourth Ending
d||-----------------------------------------------|-------|--------|-------|-----------------||
A||-----------------------------------------------|-------|--------|-------|-----------------||
F||-----------------------------------------------|-------|--------|-------|-----------------||
C||---9--7------------------888----9--7-----------|-------|--------|-------|-----------------||
G||2--7--5--7875-7-7--101010666-2--7--5--7875-7-7-|7875---|7875---2|7875---|7875------------2||
D||0-0--0--0------0-0-8-8-8-----0-0--0--0------0-0|----875|----8750|----875|----875-454-141-0||

Play Riff:3 2x 2:40-3:03
Play Riff:4 2x 3:03-3:27

   Riff:7 Play 3x 3:27-3:49
   Guitar:L Guitar:R plays the notes in ( ) First Time only
d||-----------------------------------------------------------------||
A||-----------------------------------------------------------------||
F||-------109--7-----------------7---------109--7-------------9---97||
C||---7-67---10-9------7910-109---10---7-67---10-9-------9---(9)----||
G||000-----------10-000----8---10---000-----------10-777(10)77-778--||
D||-----------------------------------------------------------------||
   Guitar:R  Second and Third time
d||-----------------------------------------------------------------||
A||-----------------------------------------------------------------||
F||--------7-------------79-97--109---------7---------------------97||
C||---10910-1079-------10--7---9-------10910-1079-------------9-----||
G||000----------107-000-------------000----------107-777-10-77-778--||
D||-----------------------------------------------------------------||

   Riff:8 Play 2x 3:49-4:17
   Both Guitars
d||---------------------------------------0--------------------------------------------------------------------------------||
A||----------------------------------------310-----------------------------------------------------------------------------||
F||-------------------------------------------21---------------------------------------------------------------------------||
C||2-2222-2-2222-222444555999-------------------320----2-2222-2-2222-22244455512121210-10101010-10-10101010-555-777-999-754||
G||0-0000-0-0000-0002223337774-4444-4-4444---------320-0-0000-0-0000-0002223331010108--8-8-8-8--8--8-8-8-8--333-555-777-532||
D||--------------------------1-1111-1-1111---------------------------------------------------------------------------------||

   Riff:9 Play 4x 4:17-4:47                             Riff:9A 4:47-4:51
   Guitar:L
d||---------------------------------------------------||--------------------||
A||---------------------------------------------------||--------------------||
F||---------------------------------------------------||--------------------||
C||-------8-889898-----------------8-889898-----------||-------8-8/9-7-5-454||
G||7-67910--------109767-77-7-67910--------109769-9910||7-67910-------------||
D||------------------------7--------------------------||--------------------||
   Guitar:R
d||---------------------------------------------------||--------------------||
A||---------------------------------------------------||--------------------||
F||-------6-667676-----------------6-667676-----------||-------6-6----------||
C||5-4578---------8-7545-55-5-4578---------8-7547-778-||5-4578----/9-7-5-454||
G||------------------------5--------------------------||--------------------||
D||---------------------------------------------------||--------------------||

   Riff:10 Play 2x 4:51-5:18
   Both Guitars
d||---------------------------------------------------------------------------------------------------------------------------------------------||
A||---------------------------------------------------------------------------------------------------------------------------------------------||
F||---------------------------------------------------------------------------------------------------------------------------------------------||
C||------------------------------------------------------------------------------------------------------------------------------444555777101010||
G||7771010109991010109-----1010109991010107--1010109991010109997775554547771010109991010109-----1010109991010107--1010109991010102223335558-8-8-||
D||0-----------------101010---------------888---------------7775553332320-----------------101010---------------888------------------------------||

Play Riff:1 2x 5:18-5:38
Bass Guitar does Riff:2 Cut in near end at 5:42 and Play Riff:2 once 5:44-5:49 (Listin to the song to know what i mean)
Play Riff:5 2x 5:49-6:01
Play Riff:6 4x 6:01-6:31
Play First Half Of Fill Ending and end the song

This Song Rules!





















Tap to rate this tab
# A B C D E F G H I J K L M N O P Q R S T U V W X Y Z