Abyssphere - About Her tab

Transcribed by: Gyn'kov Vladimir (mf)

Intro

|------------------|6----------------|5---------------|3---------------|
|------------------|6----------------|6----6h8p6------|4---------------|
|-------3----------|7----------------|5---------------|3-3-------------|
|-----7------7--7/8|8--8---8-10-8-7-8|7-7---------7---|5---5-----------|
|5-------5---------|8----8-----------|8---8---------8-|6---------------|
|---3-------3------|6----------------|5---------------|3-----5-6-3--6-5|



|------------------|6----------------|5---------------|3---------------|
|------------------|6----------------|6----6h8p6------|4---------------|
|-------3----------|7----------------|5-5---------5---|3----3----------|
|-----7------7--7/8|8--8---8-10-8-7-8|7---7---------7-|5--5------------|
|5-------5---------|8----8-----------|8---------------|6-----6---------|
|---3-------3------|6----------------|5---------------|3--------5-6-3--|
Tap to rate this tab
 
# A B C D E F G H I J K L M N O P Q R S T U V W X Y Z