Abyssphere - About Her chords

Transcribed by: Gyn'kov Vladimir (mf)

Verse

|--------3---------|--------6--------|-------5-------|-------3-------|
|--------3---------|--------6--------|-------6-------|-------4-------|
|--------3---------|--------7--------|-------5-------|-------3-------|
|--------5---------|--------8- ------|-------7-------|-------5-------|
|--------5---------|--------8--------|-------8-------|-------6-------|
|--------3---------|--------6--------|-------5-------|-------3-------|

Chorus

|--------3---------|--------5--------|-------3-------|-------5-------|
|--------3---------|--------6--------|-------4-------|-------7-------|
|--------3---------|--------5--------|-------3-------|-------7-------|
|--------5---------|--------7--------|-------5-------|-------7-------|
|--------5---------|--------8--------|-------6-------|-------5-------|
|--------3---------|--------5--------|-------3-------|-------5-------|
Tap to rate this tab
 
# A B C D E F G H I J K L M N O P Q R S T U V W X Y Z